Ac Dc — Shake A Leg

#----------------------------------PLEASE NOTE--------------------------------#
#This file is the author's own work and represents their interpretation of the#
#song. You may only use this file for private study, scholarship, or research.#
#-----------------------------------------------------------------------------#
#-- File created with Instab - http://www.pconline.com/~smcarey/instab.html --#
#-----------------------------------------------------------------------------#

Author/Artist: AC/DC
Title: Shake a Leg
Album: Back in Black
Transcribed by: Matt Foster
Email: nexthendrix806@hotmail.com

this is the whole song except the solo. if you think you
can tab the solo, be my guest.

-----|--------|---------------------------------------------------------------
-----|--------|---------------------------------------------------------------
-----|--2-----|---------------------------------------------------------------
--2--|--2--2--|---------------------------------------------------------------
--2--|--0--2--|---------------------------------------------------------------
--0--|-----0--|---------------------------------------------------------------
intro listen for when to play

------------------------------------------------------------------------------
------------------------------------------------------------------------------
------------------------------------------------------------------------------
------------------------------------------------------------------------------
------------------------------------------------------------------------------
--0-3-0-----------------------------------------------------------------------
3x

------------------------------------------------------------------------------
------------------------------------------------------------------------------
------------------------------------------------------------------------------
------------------------------------------------------------------------------
------------------------------------------------------------------------------
--0-3-0-5-9-9-5-9-9-7-10-10---------------------------------------------------
4x

------------------|-----------------------------|-----------------------------
------------------|-----------------------------|-----------------------------
------------------|-----------------------------|-----------------------------
------------------|-----------------------------|-----------------------------
------------------|-----------------------------|-----------------------------
--0--0-0--0--0-0--|--0-3-0-5-9-9-5-9-9-7-10-10--|-----------------------------
verse 2x

------------------|-----------------------------|-----------------------------
------------------|-----------------------------|-----------------------------
------------------|-----------------------------|-----------------------------
------------------|-----------------------------|-----------------------------
--0--0-0--0--0-0--|--0-3-0-5-9-9-5-9-9-7-10-10--|-----------------------------
------------------|-----------------------------|-----------------------------
verse 1x, then lower one 1x

------------------------------------------------------------------------------
------------------------------------------------------------------------------
-4-4------4-------------------------------------------------------------------
-4-4--2---4--2----------------------------------------------------------------
-2-2--2---2--2----------------------------------------------------------------
------0------0----------------------------------------------------------------
chorus 4x

------------------------------------------------------------------------------
------------------------------------------------------------------------------
-9-9-----9--------------------------------------------------------------------
-9-9--9--9--9-----------------------------------------------------------------
-7-7--9--7--9-----------------------------------------------------------------
------7-----7-----------------------------------------------------------------
chorus outro 2x

------------------------------------------------------------------------------
------------------------------------------------------------------------------
------------------------------------------------------------------------------
------------------------------------------------------------------------------
------------------------------------------------------------------------------
--5-0-0-5-0-0-0--------------------------------------------------------------