Ac Dc — Shook Me All Night Long

#---------------------------------YOU BEST NOTE-------------------------------#
#This file is the author's own work and represents their interpretation of the#
#song. You may only use this file for private study, scholarship, or research.#
#-----------------------------------------------------------------------------#

Shook Me All Night Long (Solo)

AC DC

Brian S > response to people wanting it!

b - bend to fret in parenthesis
% - rest
~~~ or vvv - vibrato
PM - Mute with fretting hand
PH - harmonic made with pick
/ - slide up
- slide down

grad ~~~~~ PM--|
e------------------|-3---------------------------------------------|
b------------------|----3--6---------------------------------------|
g--5b(7)-----------|----------5b(6)vvv-3b(4)-----------------------|
d------------------|--------------------------5------5---5--3------|
a------------------|-----------------------------5~~(5)-------5--3-|
e------------------|-----------------------------------------------|

PM--| PH PM PH ~~~
e-------------^---------------------^--------------------------|
b------------^---------------------^-------------------6--6----|
g-----------3b(1/4)---------------3b(1/4)---%--%--5/7----------|
d---------x----------5--(0)---5--------------------------------|
a--1-----------------------------------------------------------|
e-----3--------------------------------------------------------|

~~~ ~~~~ PH
e---------------------------------10-----------------^-----------|
b--------8--8--------8--10b(12)vvvvvv(10b)r10--8----8---11b(13)vv|
g--7//9-----------9----------------------------------------------|
d----------------------------------------------------------------|
a----------------------------------------------------------------|
e----------------------------------------------------------------|

e----------------------------------------------15-----------------|
b--10b(12)vvv--8-----8-------18b(20)vvv--18b------15--18---------|
g-----------------9-------%--------------------------------17b(19)|
d-----------------------------------------------------------------|
a-----------------------------------------------------------------|
e-----------------------------------------------------------------|

e--------------------------------------------------------------|
b---------------17--------------18------18---------------------|
g--r17--15------17--15--17b(19)----17b------17bvvr17--15b(1/4)-|
d-----------17-------------------------------------------------|
a--------------------------------------------------------------|
e--------------------------------------------------------------|
~~~~ ~~~
e----------------------------18b(20)----18b(19)-----17b(18)r17p15-|
b------17--15--17--15--15---------------------------------------|
g------17--15--17--15-------------------------------------------|
d--17-------------------------------------------------------------|
a-----------------------------------------------------------------|
e-----------------------------------------------------------------|

e--17-----15-------------15------------------------------------|
b-----17------18b(20)vvv-----18--------------------------------|
g---------------------------------17b(18)vvr17p15--17/19vvvvv-|
d--------------------------------------------------------------|
a--------------------------------------------------------------|
e--------------------------------------------------------------|
~~~~ ~~~~~
e------------15-----15---15--17b(18)vv17--15-----|
b-----15/17-----17-------------------------------|
g--%---------------------------------------------|
d------------------------------------------------|
a------------------------------------------------|
e------------------------------------------------|
You really took me and

G5 Csus2 G/B D5 D Csus2 G/B
You, shook me all night long. Ah
You, shook me all night long. Yeah Yeah you
shook me all night long.