Ac Dc — Shoot To Thrill

Shoot to Thrill - AC/DC


Play this first, then a couple times over the next section
------------
------------
-------2----
-2-----2----
-0-3-4-0----
------------

This is the main riff for the verses & the 1st half of the solo
-3----2----3----2------2---------------------------------------------
-0----3----0----3------3---------------------------------------------
-0----2----0----2------2---2-----------------------------------------
-0----0----0----0------0---2-----------------------------------------
-------------------------3-0-----------------------------------------
---------------------------------------------------------------------

Or you can play it like this if your guitar sounds bad w/ open chords
( I think Angus plays open & Malcom plays power chords)
---------------------------------------------------------------------
---------------------------------------------------------------------
-7----7----7----7------7---------------------------------------------
-5----7----5----7------7---------------------------------------------
------5---------5------5--(7)----------------------------------------
-------------------------8-5-----------------------------------------
^ No one will notice if you dont play
| this whole chord & it's a pain in
+--- the ass, so dont worry about it!

This is the piece that comes before the chorus.
---------------------------------------------------------------------
---------------------------------------------------------------------
-5---------5------5---------5------7---------7-------------7---------
-5----5----5------5----5----5------7----7----7-------------7---------
-3----5----3------3----5----3------5----7----5-------------5---------
------3----------------3----------------5----------------------------

This little piece shows up all over the place, so figure the timing out.
---------------------------------------------------------------------
---------------------------------------------------------------------
---------------------------------------------------------------------
-2---2-2-2-2-2-2-2-2-2-2-2-2-2-2-2-----------------------------------
-2---2-2-2-2-2-2-2-2-2-2-2-2-2-2-2-----------------------------------
-0---3-3-0-3-3-0-3-3-0-3-3-0-3-3-0-----------------------------------

chorus:
---------------3---3---3-3-3-2---2---2-2-2--2---2---2-2-2------------
---------------0---0---0-0-0-3---3---3-3-3--3---3---3-3-3--0---------
-2---2---2-2-2-0---0---0-0-0-2---2---2-2-2--2---2---2-2-2--0---------
-2---2---2-2-2-0---0---0-0-0-0---0---0-0-0--0---0---0-0-0--0---------
-0---0---0-0-0-2---2---2-2-2-------------------------------^---------
---------------3---3---3-3-3-------------------------------|---------
Just smack the open strings --+
once as you change back to the 1st chord

Of course, there's always the easy way which sounds just as good...
---------------------------------------------------------------------
---------------------------------------------------------------------
-2---2---2-2-2---------------7---7---7-7-7--7---7---7-7-7------------
-2---2---2-2-2-5---5---5-5-5-7---7---7-7-7--7---7---7-7-7--0---------
-0---0---0-0-0-5---5---5-5-5-5---5---5-5-5--5---5---5-5-5--0---------
---------------3---3---3-3-3-----------------------------------------


That should get you pretty close. If you ever get lost, just
smack an A chord & smile & nobody will ever notice.