Ac Dc — Sin City

Sin City by AC/DC (Young/Young & Scott) off the album 'Powerage' 1978


b=bend r=release p=pull off ub=unison bend ph=pinch harmonics

4 Times then... Patt.1 (3 Times)
N.C. E5 B5 D5 A E B D A
e ----------------- e -------------.-------- e -----------2----------
B ----------------- B -------3--2--.-------- B -----------3--2-------
G ----------------- G ----4--2--2--.-------- G -----1--4--2--2-------
D ----------------- D -2--4--0--2--.-------- D -----2--4--0--2-------
A ------2-5-0-2---- A -2--2-----0--.-------- A -----2--2-----0-------
E --3-5---------0-- E -0-----------.--0--3-- E -0---0-----------0-3--

Patt.2
E B (G)
e ---------------.--2----2---2--2-|---2--2-2---2--------
B -----------0---.--3----3---3--3-|---3--3-3---3--------
G --------4--0---.--2----2---2--2-|---2--2-2---2--------
D -----2--4--0---.--0----0---0--0-|---0--0-0---0--------
A -----2--2--0---.----------------|---------------------
E -0---0---------.----------------|---------------------

Pre-Solo (with fig.2 2 Times!)
p p p p p p p p
e -0-12-0-0-10-0-0-9-0-0-7-0-0-5-0-0-0-3-0-0-5-0-0-3-0-0
B ------------------------------------------------------
G ------------------------------------------------------
D ------------------------------------------------------
A ------------------------------------------------------
E ------------------------------------------------------

p p p p p p p p bend~~~~~ b ~~~
e -5-0-0-3-0-0-5-0-0-3-0-0-5-0-0-3-0-0-5-0-0-3--0-0---------15-17-
B -------------------------------------------------3(5)-----------
G ----------------------------------------------------------------
D ----------------------------------------------------------------
A ----------------------------------------------------------------
E ----------------------------------------------------------------

Solo (with fig.1 (7 times))
E B D A E
~~~~~~~~~ bend~~~~ b b hold bend
e --------15-12-----------12----------------------------
B ---------------15-12-------15-17------0--------------
G ---------------------14--------------------2-4--2-4-4-
D ------------------------------------------------------
A ------------------------------------------------------
E ------------------------------------------------------
D A
release~~~~~~~~
e ------------------------------------------------------
B ------------------------------------------------------
G -4--4--4--4--4--4--2-------------0--4-2-0-4-2-0-4-2-0-
D ------------------------------------------------------
A ------------------------------------------------------
E ------------------------------------------------------
D A

e ------------------------------------------------------
B ------------------------------------------------------
G 4-2-0-7-5-0-7-5-0-7-5-0-7-5-0-9-7-0-9-7-0-11-9-0-12-10
D ------------------------------------------------------
A ------------------------------------------------------
E ------------------------------------------------------

E B
~~~~~ b b~~~~~
e --------------------------------12---12-----12--------
B ------------------------------12---15----------15-17--
G 0-13-11-0-14-12-0-14---14-------------14-16----------
D ------------------------------------------------------
A ------------------------------------------------------
E ------------------------------------------------------

D A E B
~~ ~~
e -15-12--12--------------------------------------------
B ------15--15-12---12----------------------------------
G ----------------14--14-12--14-12-x-14-12-12---14-12-12
D -------------------------14-----------------14--------
A ------------------------------------------------------
E ------------------------------------------------------
D A E B
~~~~ ~~~~~~~~ph~~~~ph~ph~~
e ------------------------------------------------------
B ------------------------------------------------------
G -------14-12-12--------14-12-12--12---12-12-12-12-12--
D -14-14-----------14-14--------------------------------
A ------------------------------------------------------
E ------------------------------------------------------

D A E B
ph r b~~~~~~~~~~~~~~~~
e -----------------------------------------------17-----
B -------------------17-20-22-20--20-22----------------
G -------14----12---------------------------------------
D -14-14----14------------------------------------------
A ------------------------------------------------------
E ------------------------------------------------------

D A E E5 B5 D FIG.2
b r ~~~~~~ ub ub ub unison bend
e ------------------------------------------------------
B -20-24--20-17-17--------0---5-----7------8-----10----
G ---------------------------7-9--9-11--10-12--12-14----
D ------------------------------------------------------
A ------------------------------------------------------
E ------------------------------------------------------

ub ub ub b~~~~~ b
e -----------------------15-17---15-17-12-15-12----12---
B ---12-----13-----15---------------------------15----15
G 14-15--15-17--17-19----------------------------------
D ------------------------------------------------------
A ------------------------------------------------------
E ------------------------------------------------------

b~~~~~~~ b
e 12--17-19-----17-20---------- e ----------------
B ------------------------------- B ----------------
G ------------------------------- G ----------------
D ------------------------------- D ----------------
A ------------------------------- A ----------------
E -----------------------------0- E -123/12-3/123-

Lyrics:
Sin City

Patt.1
Diamonds and dust
Home at last, rich man first
Lambourghinis, caviar
Dry martinis, Shangri-la
A
I got a burning feeling
B
Deep inside of me lit the oven
B/A B
But I'm gonna set it free

Patt.1
I'm going in to sin city
I'm gonna win in sin city
Where the lights are bright
Do the town tonight
I'm gonna win in sin city

(I'm gonna burn you baby)
Patt.1
Ladders and snakes
Ladders give, snakes take
Rich man, poor man, beggarman, thief
Ain't got a hope in hell, that's my belief

Fingers Finny, Diamond Jim
daggers ready, look out I'm coming in
E G A
So spin that wheel, cut that flack
A
And roll those loaded dice
A B5
Bring on the dancing girls
B5
And put the champaign on ice