Ac Dc — Snowballed

Snowballed by AC/DC
Standard Tuning
No bass until (0.11)

(Intro)
G:--------------|
D:--------------|
A:-------2-3-4-5|
E:7-5-7---------|

G:------------------------------------------------|
D:------------------------------------------------| x3
A:--5-4--------5-4--------5-4--------------2-3-4-5|
E:0-----0-0--0-----0-0--0-----0-0--0-7-5-7--------|

G:--------------------------------------------|
D:---------------------------------2-------5-3|
A:--5-4--------5-4--------5-4--------3-3-3----|
E:0-----0-0--0-----0-0--0-----0-0-------------|

G:---------------| |-------------|
D:------------5--| x3 |-------------|
A:--------3-5---5| |-------------|
E:5-3-5-5--------| |5--3--5--3--5|

G:----------------------|
D:----------7-----------|
A:----------------------|
E:0-5---0-5---0-5---0-5~|

G:------------------------------------------------|
D:------------------------------------------------|
A:--5-4--------5-4--------5-4--------------2-3-4-5|
E:0-----0-0--0-----0-0--0-----0-0--0-7-5-7--------|

G:--------------------------------------------|
D:---------------------------------2-------5-3|
A:--5-4--------5-4--------5-4--------3-3-3----|
E:0-----0-0--0-----0-0--0-----0-0-------------|

G:---------------| |-------------|
D:------------5--| x4 |-------------|
A:--------3-5---5| |-------------|
E:5-3-5-5--------| |5--3--5--3--5|

G:----------------------|
D:----------7-----------|
A:----------------------|
E:0-5---0-5---0-5---0-5~|

(During Solo)
G:------------------------------------------------|
D:------------------------------------------------| x4
A:--5-4--------5-4--------5-4--------------2-3-4-5|
E:0-----0-0--0-----0-0--0-----0-0--0-7-5-7--------|

G:----------------------|
D:----------7-----------|
A:----------------------|
E:0-5---0-5---0-5---0-5~|

G:0---------------------|
D:---0-----------------0| x15
A:----------------------|
E:------5--3--5--3--5---|

(Outro)
G:--------|
D:--------|
A:--------|
E:5--5--5~|

Thanks, please rate it after you learn it.
Tabbed by:
_TheBassist01_