Ac Dc — Stevens Song

ARTIST : AC-DC
SONG TITLE: STEVEN'S SONG
TABBED BY: POINDEXTER HARRISON

INTRO:
E--------------------------------17-------20-18---------|
B----------3---16-15-16----15-14----18b20-------16-7----|
G----------2------------18-------------------------6----|
D----------2---------------------------------------7----|
A--------------------------------------------------7----|
E-------------------------------------------------------|

VERSE:

C------Ama7-----D-D5

C------Ama7--G--B9-D

C6---F--G7--Fma7-F
[REAPEAT 4X]


OUTRO:
E------------18-19-14b-17--12-13-10--8--|
B---5--------------------------------0--|
G---6-----------------------------------|
D---2-----------------------------------|
A------------------------------------9--|
E---------------------------------------|