Ac Dc — Stick Around

-------------------------------------------------------------------------------
STICK AROUND - AC/DC
-------------------------------------------------------------------------------


Intro and rhythm figure a:
e|---------------------------------------------------------------------------|
B|----------------3--3-------------------------------------------------------|
G|-2--2-----------2--2-------------------------------------------------------|
D|-2--2-----------0--0-------------------------------------------------------|
A|-0--0----------------------------------------------------------------------|
E|---------------------------------------------------------------------------|
Rhythm figure b:
e|---------------------------------------------------------------------------|
B|-------------3--3---3----------------3--3---3------------------------------|
G|-2--2---2----2--2---2----2--2---2----2--2---2----2--2---2----2--2---2------|
D|-2--2---2----0--0---0----2--2---2----0--0---0----2--2---2----2--2---2------|
A|-0--0---0--3------3----3-0--0---0--3------3----3-0--0---0----0--0---0------|
E|------3-----------------------3-----------------------3----3------3--------|
Chorus
e|---------------------------------------------------------------------------|
B|-3-----------------------------------------3-------------------------------|
G|-2---------------2--2-2-2-2-0-2-2-2-2-2----2---------------2---------------|
D|-0-------5-------2--2-2-2-2-0-2-2-2-2-2----0-------5-------2---------------|
A|---------5-------0--0-0-0-0-0-0-0-0-0-0------------5-------0---------------|
E|---------3-----------------------------------------3-----------------------|