Ac Dc — The Jack

-------------------------------------------------------------------------------
The Jack - AC DC
-------------------------------------------------------------------------------

Tabbed by: Bryan Thorsell

Tuning: Regular

e|--------------------------------------------------------|
B|--------------------------------------------------------|
G|--------------------------------------------------------| Repeat over
D|--2--2---4--5----2--2--4--5-----------------------------| The chorus and refrain
A|--0--0---0--0----0--0--0--0----2--2--4--5----2--2--4--5-|
E|-------------------------------0--0--0--0----0--0--0--0-|

SOLO:
e|----------------------------------------------------------------------------|
b|----------------------------------------------------------------------12----|
g|--------9--11-(13)----------11-13-11-9---------9--11-13---11-12----13-------|
D|-9--11---------------9--11---------------9--11------------------------------|
A|----------------------------------------------------------------------------|
E|----------------------------------------------------------------------------|

e|----------------------------------------------------------------------------|
b|-------------------------------12---15--------------------------------------|
g|-13--12--13--11-9-----14-16-----------14-16-14-12-14-14-16-14-12----14---12|
D|------------------------------------------------------------------14----14--
A|----------------------------------------------------------------------------|
E|----------------------------------------------------------------------------|

e|----------------------------------------------------------------------------|
b|-------------------------------3-0-------------------------10-12--8---------|
g|-2-4-----2-4-2-4-2-4-2-4---2-0-----2-0-----0------------------------9-------|
D|---------------------------------------2-0---0---2-----0--------------------|
A|----------------------------------------------------------------------------|
E|----------------------------------------------------------------------------|

e|-------12----------------------------------------------15-17-15-17-15-12-14-|
b|-12-15----12--15--17--17---17-15-12-14-15------14--12-----------------------|
g|----------------------------------------------------------------------------|
D|----------------------------------------------------------------------------|
A|----------------------------------------------------------------------------|
E|----------------------------------------------------------------------------|

e|15-17-15-14-12----12----------------------------------------------------12--|
b|---------------15----15-12----12----------12-------------------------12-----|
g|---------------------------14----14-14-16----15-12-14-12----12-14-16--------|
D|---------------------------------------------------------14-----------------|
A|----------------------------------------------------------------------------|
E|----------------------------------------------------------------------------|

e|----------------------------------------------------|
b|15-12-------------------------------------15----15--|
g|------15-14-12----14----12------9----14-16-14-16--|
D|---------------14----14---------------------------|
A|----------------------------------------------------|
E|----------------------------------------------------|
| / slide up
| slide down
| h hammer-on
| p pull-off
| ~ vibrato
| + harmonic
| x Mute note

===============================================================================