Ac Dc — The Razors Edge

Razor' Edge 1990 - AC/DC   RAZOR'S EDGE         Words & music by Angus &        
tabbed by Jason Bineider Malcolm Young


INTRO:(guitar 2, Angus)

e|----------1-/-3-/5------------------------------------------------
b|-------------------------------0-1-3----0--1-------0--------------
g|--------------------------------------2-------0-h-2----0-2------0-
D|-----------------------------------------------------3-----2-3----
A|------------------------------------------------------------------
E|-0----------------------------------------------------------------


e|-----------------------------------------------------------------
b|-----------------------------------------------------------------
g|--------------------------------------------------------------0--
D|---0-h-2-h-3-p-2-p-0-h-2-p-0-h-2-----------0---------------------
A|-----------------------------------2-2----3--p--2--0-------------
E|-------------------------------------------------------0-h-1-----

e|------------------------------------|
b|------------------------------------|
g|----------------------------2-------|
D|-------------------------0--2-------|
A|-3--------0----------3------0-------|
E|----1-p-3----1----------------------|


(Both guitars)

e|-0----------0------------------0------------------|
b|-0----------0------------------0------------------|
g|-4----------4-/-5--2----------2-/-4-/-5--5------|
D|--------------------------------------------------|
A|--------------------------------------------------|
E|--------------------------------------------------|

play 8 times

e|---------0-----------0---|
b|---------0-----------0---|
g|-2-h-4-------4-/-5-------|
D|-------------------------|
A|-------------------------|
E|-------------------------|

play 8 times

e|--------------------------------------------------|
b|--------------------------------------------------|
g|--------------------------------------------------|
D|--------------------------------------------------|
A|--------------------(15)-*********-(15)-*********-|
E|--X-X-X-X---X---X---(15)-*********-(15)-*********-|




Verse:

Angus plays this


e|-0----------0------------------0------------------|
b|-0----------0------------------0------------------|
g|-4----------4-/-5--2----------2-/-4-/-5--5------|
D|--------------------------------------------------|
A|--------------------------------------------------|
E|--------------------------------------------------|

Malcolm play chourds over the verse

E5 E5
theres fight-in' on___ the left and march-in' on__ the right,
E5 E5
Don't look up in_____ the sky, Your gon-na die___ of fright!
B5 C5 G5 A5 B5
Here comes the ra-zor's edge______
E5 E5
You're liv-in' on____ the edge dont know wrong from right.
E5 E5
They're breathing down your neck,__ your runn-in' out-ta lives
B5 C5 G5 A5
and here comes the raz-ors edge.____
A5 B5
Ra-zors___ edge____. _________The Razors edge


Chours:

e|----------------------------------------------------------------
b|----------------------------------------------------------------
g|----------------------------------------------------------------
D|-2----2----2----------------------2----2----2-------------------
A|-2----2----2---0-h-2-p-0----------2----2----2----0-h-2-p-0------
E|-0----0----0--------------3--0----0----0----0--------------3--0-


e|----------------------------------------------------------------
b|---------------2-b-3-r-2-0-------------------2-b-3-r-2-0--------
g|---------------2-b-3-r-2-0-------------------2-b-3-r-2-0--------
D|-2----2----2-------------------2----2----2----------------------
A|-2----2----2-------------------2----2----2----------------------
E|-0----0----0-------------------0----0----0----------------------



e|----------------------------------------------------------------
b|----------------------------------------------------------------
g|----------------------------------------------------------------
D|-2----2----2----------------------2----2----2-------------------
A|-2----2----2---0-h-2-p-0----------2----2----2----0-h-2-p-0------
E|-0----0----0--------------3--0----0----0----0--------------3--0-


e|----------------------------------------------------------------|
b|---------------2-b-3-r-2-0-------------------2-b-3-r-2-0--------|
g|---------------2-b-3-r-2-0-------------------2-b-3-r-2-0--------|
D|-2----2----2-------------------2----2----2----------------------|
A|-2----2----2-------------------2----2----2----------------------|
E|-0----0----0-------------------0----0----0----------------------|


Solo

e|-------------------------------------------------------------
b|-------8-------8-------8-------8------8------8------8------8-
g|-5-h-7---5-h-7---5-h-7---5-h-7---5-h-7--5-h-7--5-h-7--5-h-7--
D|-------------------------------------------------------------
A|-------------------------------------------------------------
E|-------------------------------------------------------------


e|-------------------------------------------------------------
b|-------8-------8-------8-------8------8------8------8------8-
g|-5-h-7---5-h-7---5-h-7---5-h-7---5-h-7--5-h-7--5-h-7--5-h-7--
D|-------------------------------------------------------------
A|-------------------------------------------------------------
E|-------------------------------------------------------------

e|-------------------------------------------------------------
b|-------8-------8-------8-------8------8------8------8------8-
g|-5-h-7---5-h-7---5-h-7---5-h-7---5-h-7--5-h-7--5-h-7--5-h-7--
D|-------------------------------------------------------------
A|-------------------------------------------------------------
E|-------------------------------------------------------------

e|-------------------------------------------------------------
b|-------8-------8-------8-------8------8------8------8------8-
g|-5-h-7---5-h-7---5-h-7---5-h-7---5-h-7--5-h-7--5-h-7--5-h-7--
D|-------------------------------------------------------------
A|-------------------------------------------------------------
E|-------------------------------------------------------------
^^^^^ tr___ ^^^^^^^^^^ ^^^^^
e|-----------------------------------------------------------------
b|-8-b-10---8-7-5-5------------------------------------------------
g|------------------7-5------------------------------------7-7-9---
D|-----------------------7-7----5-(7)---5-h-7-----2-2-0------------
A|-----------------------------------------------------------------
E|-----------------------------------------------------------------

e|--------------------------------10-10-10-10-10-------------------
b|-------5-5---------------5-8----10-12-12-12-12-10-8-10-12-10-----
g|-7-b-9------7-b-9--7-b-9-----------------------------------------
D|-----------------------------------------------------------------
A|-----------------------------------------------------------------
E|-----------------------------------------------------------------

P.H.______________ PH
e|--------------------------------------------------------0-3-------
b|------------------------------------------------------------3-2-0-
g|--------2-b-4---2-b-4-2-b-4-2-b-4-2-b-4---2-----2-b-4-------------
D|----------------------------------------2-------------------------
A|-2-/--------------------------------------------------------------
E|------------------------------------------------------------------

e|------------------------------------------------------------------
b|------------------------------------------------------------------
g|-3-2-0------------------------------------------------------------
D|-------2-4-2-0------------------------5---7--5-------------7-X-5--
A|---------------2-4-2-0----5-b-6--7-7----7-------------------------
E|------------------------3------------------------5-3-0------------


> > >
e|------------------------------------------------------------------
b|-------------------------------------8-b-10--10-b-12-r-11-b-12-r--
g|------------------------------7-9-9-------------------------------
D|-X-7-b-8-r-7-5-7-X-5-X--7-/-9-------------------------------------
A|------------------------------------------------------------------
E|------------------------------------------------------------------

e|------------12-p-0-15-14-p-12--14-p-12----------------------------
b|-11-12-b-12------------------------------15-12-14-12-14-12--------
g|------------------------------------------------------------15-12-
D|------------------------------------------------------------------
A|------------------------------------------------------------------
E|------------------------------------------------------------------

e|------------------------------------------------------------------
b|------------------------------------------------------------------
g|-14-12----12-14-12------------------------------------------------
D|-------14-----------14--12----------------------------------------
A|---------------------------14--12-10-12-10-10-12-10-12----------
E|-----------------------------------------------------------/-17--


Chours


e|----------------------------------------------------------------
b|----------------------------------------------------------------
g|----------------------------------------------------------------
D|-2----2----2----------------------2----2----2-------------------
A|-2----2----2---0-h-2-p-0----------2----2----2----0-h-2-p-0------
E|-0----0----0--------------3--0----0----0----0--------------3--0-


e|----------------------------------------------------------------|
b|---------------2-b-3-r-2-0-------------------2-b-3-r-2-0--------|
g|---------------2-b-3-r-2-0-------------------2-b-3-r-2-0--------|
D|-2----2----2-------------------2----2----2----------------------|
A|-2----2----2-------------------2----2----2----------------------|
E|-0----0----0-------------------0----0----0----------------------|

Comments and correction are welcome!