Ac Dc — This House Is On Fire

INTRO
E|--------------------------------|
B|--------------------------------|
G|--------7~~~----7~~----5---3-5--|
D|---3/5--------5------3---3------|
A|--------------------------------|
E|--------------------------------|

PRE-CHORUS
E|-------------------|---------------------|
B|-------------------|---------------------|
G|--7----5-7-5-7--5--|------3--------3-----|
D|--7----5-7-5-7--5--|--3---3--------3-----|
A|--5----3-5-3-5--5--|--3---1---3-3--1---3-|
E|-------------------|--1-------1-1------1-|

CHORUS THEN THIS 4X
E|------------------------|-----------------------|
B|------------------------|-----------------------|
G|------------------------|--3-X-3--0------3/5-5--|
D|------------------------|--3-X-3--0------3/5-5--|
A|----5--5--5--5------1-3-|-----------------------|
E|-6--3--6--3--6--0-3-----|--------------0--------|