Ac Dc — What Do You Do For Money Honey

-----------------------------------------------------------------------------
What Do You Do For Money Honey - AC/DC
-----------------------------------------------------------------------------
Tabbed by: thunderstruck24
Email: thunderstruck996@hotmail.com or squarehead24@hotmail.com

Tuning: Standard

INTRO (Malcolm)
e|-----3-------2--2---------------------------------3----------------------|
B|-----3-------3--3---2--2--------------------------3----------------------|
G|-----0-------2--2---2--2---Repeat 3x then---------0----------------------|
D|--2--0-------0--0---2--2-----------------------2--0----------------------|
A|--2--x--------------0--0-----------------------2--x----------------------|
E|--0--3-----------------------------------------0--3----------------------|

INTRO (Angus)
From carful listening and from watching AC/DC I noticed Angus plays the
intro like this:
e|-------------------------------------------------------------------------|
B|-------------------------------------------------------------------------|
G|--9--12-----7--7-----------Repeat 3x then------9--12~~-------------------|
D|--9--12-----7--7---7--7------------------------9--12~~-------------------|
A|--7--10-----5--5---7--7------------------------7--10~~-------------------|
E|-------------------5--5--------------------------------------------------|

VERSE Figure 1 (Repeat 2x)
e|--------------------------------------------3---2------------------------|
B|------------------3---3---------------------3---3------------------------|
G|--9---7---7-------0---2---7/9---7---7-------0---2----7/------------------|
D|--9---7---7-------0---0---7/9---7---7-------0---0----7/------------------|
A|--7---5---4-------x---x---5/7---5---4-------x--------5/------------------|
E|--0---------------3---2---------------------3--------0-------------------|

VERSE Figure 2 (Repeat 2x)
e|-------------------------------------------------------------------------|
B|------------------3---3--------------------------------------------------|
G|--9---7---7-------0---2---7/9---7---7------------------------------------|
D|--9---7---7-------0---0---7/9---7---7------------------------------------|
A|--7---5---4-------x---x---5/7---5---4------------------------------------|
E|------------------3---2------------------0---0---0-----------------------|

PRE-CHORUS
e|-------------------------------------------------------------------------|
B|-----------------3--3----------------------------------------------------|
G|--9--7--7--------0--2---7/9---7---2--------------------------------------|
D|--9--7--7--------0--0---7/9---7---2-Strum this A5 16x--------------------|
A|--7--5--4--------x--x---5/7---5---0--------------------------------------|
E|-----------------3--3----------------------------------------------------|

The CHORUS is the same as the first part of the intro before the Repeat 3x,
except you repeat the chorus 4x.

PRE-VERSE (Malcolm)
e|------------------3---2----------------------3---2-----------------------|
B|------------------3---3----------------------3---3-----------------------|
G|--9---7---7-------0---2------9---7---7-------0---2-----------------------|
D|--9---7---7-------0---0------9---7---7-------0---0-----------------------|
A|--7---5---4-------x----------7---5---4-------x---------------------------|
E|--0---------------3-------0------------------3--------0------------------|

PRE-VERSE (Angus)
e|-------------------------------------------------------------------------|
B|-------------------------------------------------------------------------|
G|--9~--7~--6~------------------9~--7~--6~---------------------------------|
D|-----------------5--4----------------------5--4--------------------------|
A|-----------------------7--------------------------7----------------------|
E|-------------------------------------------------------------------------|

I don't know the solo yet but if I learn it I'll update my tab and put the
solo in it. But until then, you can always ad-lib it. Anyway, I hope my tab
helped you learn the song.

Notation:
| / slide up
| ~ vibrato
| x Dead note
=============================================================================