Ac Dc — Who Made Who

artist:ac/dc
song:who made who
album:who made who
guitarist:angus and malcom young
tabbed by:smellslikefeet1

ive seen every version of this tab and this one is almost completely rightif u find
wrong with it let me kno@ black_blizzord@msn.com

h=hammer
p=pull
s=slide

ok heres the first verse of the song
malcome plays these cords with angus then angus comes in witha a different riff but
cords keep repeating through the song
|--------------------------------------------------------------------------|
|--------------------------------------------------------------------------|
|-5-5--5-5--5-5--5-5--5-5--5-5--5-5--5-5-----------------------------------|
|-5-5--5-5--5-5--5-5--5-5--5-5--5-5--5-5-7-7--7-7--5-5--5-5--5-5--5-5------|
|-3-3--3-3--3-3--3-3--3-3--3-3--3-3--3-3-7-7--7-7--5-5--5-5--5-5--5-5------|
|----------------------------------------5-5--5-5--3-3--3-3--3-3--3-3------|

heres the riff angus comes in with on the second part of the verse
|------------------------------------------------------------------------|
|------------------------------------------------------------------------|
|------5-----------------------------------------------------------------|
|-------5---3--5p3--0-- play as many times as malcome stays on cord 1-|
|--3-3-----3-3----3------------------------------------------------------|
|------------------------------------------------------------------------|

|----------------------|
|----------------------|
|----------------------|
|-----------0----------| play as many times as on cord 2
|---5---7p5------------|
|-5--5-----5-----------|

|----------------------|
|----------------------|
|----------------------| play as many times as on cord 3
|----------0-----------|
|---3-5p3--------------|
|--3-3---3-------------|


Chorus
|-----------------|
|-----------------|
|--5-5-------5-5--| keep playing this thru the chorus until the brigde
|--5-5-------5-5--|
|--3-3-3-3-3-3-3--|
|-----------------|

Brigde to solo
|------------------------------------------------|
|------------------------------------------------|
|---3---------5-5--5-5--5-5--5----5--------------|
|---5-5--3-5--5-5--5-5--3-5--5-5--5--------------|
|---3-5--3-5--3-3--3-3--3-3--3-5--3--------------|
|-----3--1-3-------------------3-----------------|


cords during solo

|--------------------------------|
|--------------------------------|
|--------------------------------| repeat 2 x
|-3---5-5---3----5--5--3--5------|
|-3-s-5-5---3-s--5--5--3-s5------|
|-1---3-3---1----3--3--1--3------|
ending