Ac Dc — You Shook Me All Night Long

------------------------------------------------------------------------------
You Shook Me All Night Long - AC/DC
------------------------------------------------------------------------------

Artist:AC/DC
Album:Back In Black
Song:You Shook Me All Night Long (INTRO)
Transcribed By:Yogi Turgeon
Date:Wedn. Dec. 18 2002

e|-3------------5--3-3-3--3p2-2-2-------------------------------------------|
B|-3------------3--3-3-3--3-3-3-3-------------------------------------------|
G|-0-0-0-0-0-0--0--0-0-0--2-2-2-2----------------2--------------------------|
D|------------------------0-0-0-0--0-3b(4)p0--3/4---3b(4)p0-----------------|
A|--------------------------------------------------------------------------|
E|--------------------------------------------------------------------------|

e|-3-------3-----3--2--3-3--2--3--2--3--------------------------------------|
B|-0--1-1--0--1--0--3--0-0--3--0--3--0--------------------------------------|
G|-0--0-0--0--0--0--2--0-0--2--0--2--0--------------------------------------|
D|-0--2-2--0--2--0--0--0-0--0--0--0--0--------------------------------------|
A|----3-3-----3-------------------------------------------------------------|
E|-3-------3-----3-----3-3-----3-----3--------------------------------------|

You just keep doin that till tha verse n you play the 2nd line for the verse

| / slide up
| p pull-off

===============================================================================