Acab — Bangun

tab bangun..16 tahun , .ini tab pertama saya ,timing tak betul.dgr cd

guitar 1 intro x 2
e------------------------------------------------------------------------
b------------------------------------------------------------------------
g------------------------------------------------------------------------
d----------5--------------5----------------5--------------5-7-5--5-------
a----7-5-7--7-5-7---7-5-7--7-5-7--3-5-7-5---7-5-7---7-5-7-------7--7-5-3-
e--5---------------1------------------------------3---------------------5


guitar 2 introx2
e------------------------------------------------------------------------
b------------------------------------------------------------------------
g----------------------------------5-5-5-5-5-5-5-5-----------------------
d--7-7-7-7-7-7-7-7-3-3-3-3-3-3-3-3-5-5-5-5-5-5-5-5-5-5-5-5-5-5-5-5-------
a--7-7-7-7-7-7-7-7-3-3-3-3-3-3-3-3-3-3-3-3-3-3-3-3-5-5-5-5-5-5-5-5-------
e--5-5-5-5-5-5-5-5-1-1-1-1-1-1-1-1-----------------3-3-3-3-3-3-3-3-------


verse...(cuba renungkan hari ke hari)
e----------------------------------------------------------------------
b----------------------------------------------------------------------
g---------------7-7-7-5-4-5*-------------------------------------------
d--7-7-7--3-3-3-7-7-7-5-4-5*-------------------------------------------
a--7-7-7--3-3-3-5-5-5-3-2-3*-------------------------------------------
e--5-5-5--1-1-1--------------------------------------------------------
*naikkan pitch


pre -chorus....(jangan mudah engkau berkata
e----------------------------------------------------------------------
b----------------------------------------------------------------------
g--------5-5-5---------------------------------------------------------
d-3-3-3--5-5-5-5-5-5-5-5-----------------------------------------------
a-3-3-3--3-3-3-5-5-5-5-5-----------------------------------------------
e-1-1-1--------3-3-3-3-3-----------------------------------------------

chorus (ikut intro)
solo(ryTHMn Ikut guiTar 2)
dah itu saja aku bolah tab dari telinga dengan kawan aku dari fuchun
harap tabs ini betul..dari ajip,omar,aban,ghani,jali,puteh,bolan dan kumar