Acab — Born To Be Skin

На этой странице Вы можете ознакомиться с 3 версиями подбора аккордов для гитары к песне "Born To Be Skin" группы (исполнителя) "Acab".

this is my version of born to be skin

verse
-------------------------------------
-------------------------------------
---5-----5---------------------------
---3--3--3---------------------------
---3--3--3-----22-33-55--------------
------1-----33-----------------------

-------------------------------------
---5-----5---------------------------
---3--3--3---------------------------
---3--3--3-----22-33-55-77-55-33-22--
------1-----33-----------------------

chorus
-------------------------------------
-------------------------------------
---------5-----------5---------------
---3--5--5--7--1--5--5---------------
---3--5--3--5--3--5--3---------------
---1--3-----5--3--3------------------

solo
-----------------------------------------------------------
-----------------------------------------------------------
7-9-9-9-9-7-5-5-----7-9-9-9-9-7-7-7-----7-9-9-9-9-7-55-5554
-----------------------------------------------------------
-----------------------------------------------------------
-----------------------------------------------------------(2X)

if you have any question email me at fender226@hotmail.com
this page is done by sopre (yusoff)
have fun!
verse
-------------------------------------
-------------------------------------
---5-----5---------------------------
---3--3--3---------------------------
---3--3--3-----22-33-55--------------
------1-----33-----------------------

-------------------------------------
---5-----5---------------------------
---3--3--3---------------------------
---3--3--3-----22-33-55-77-55-33-22--
------1-----33-----------------------

chorus
-------------------------------------
-------------------------------------
---------5-----------5---------------
---3--5--5--7--1--5--5---------------
---3--5--3--5--3--5--3---------------
---1--3-----5--3--3------------------

solo
-----------------------------------------------------------
-----------------------------------------------------------
7-9-9-9-9-7-5-5-----7-9-9-9-9-7-7-7-----7-9-9-9-9-7-55-5554
-----------------------------------------------------------
-----------------------------------------------------------
-----------------------------------------------------------(2X)
born to be skin
(solo)
------------------------------------------------------------------------------------------|
------------------------------------------------------------------------------------------|
---5(s)-9-9-9-9-9-7-5-5--5(s)-9-9-9-9-9-7-7-7--7-7-9-9-9-9-9-7-5-5-5-5-5-4----4--5--7--9--|
------------------------------------------------------------------------------------------|
------------------------------------------------------------------------------------------|
------------------------------------------------------------------------------------------|


----------------------------------------------------------------------------|
----------------------------------------------------------------------------|
---5(s)-9-9-9-9-9-7-5-5--5(s)-9-9-9-9-9-7-7-7--7-7-9-9-9-9-9-7-5-5-5-5-5-4--|
----------------------------------------------------------------------------|
----------------------------------------------------------------------------|
----------------------------------------------------------------------------|

(h)-hammer
(s)-slide

done by sopre
fender226@hotmail.com