Acab — Fight For Your Right

На этой странице Вы можете ознакомиться с 3 версиями подбора аккордов для гитары к песне "Fight For Your Right" группы (исполнителя) "Acab".

artist~A.C.A.B
Song~Fight For Your Right
Tabbers Email~manmc89@yahoo.com

Hey Yo Wassap ! This Tab is 70% right i think if i tab the whole song
so i'll just give you every part of the song and you arrange them in the
original order

~~~~~Have Fun~~~~~
Intro/Verse
For intro,Play Twice ! For Verse,Play 4 times !

I------------------------------2--------------3----
I--------------3------2-2------------3-3-----------
I-----3-3----------0------0-0-----1------1-1-------
I--1------1-1--------------------------------------

I--------------------------------------------------
I--------------------------------------------------
I--3-3--2-2--0-0-----------------------------------
I-----------------3-3------------------------------

Chorus
Play 4 Times

I-------------7-------------5-------------3--------
I-----7-7-----------5-5-----------3-3--------------
I--5------5-5----3------3-3----1------1-1----------
I--------------------------------------------------

I-----------------
I-----------------
I--0--1--3--------
I-----------------

Chorus ending

I--------------------------------------------------
I--------------------------------------------------
I--1--0--------------------------------------------
I--------3--1--------------------------------------


Lepas Tu,Pandai Pandai lah korang !
hahahahahaha !

``````````The_End`````````

Thanks for visiting UG !
Song Title: Fight for your right	
Artist: A.C.A.B
Transcriber Name: Mohd Rizwan Bin Rossidi (what_666@hotmail.com)

Songs in key G

Basic chords
verse & intro: G5 B5 C5 D5
chorus : E5 D5 C5 B5 C5 D5

If you don't know, the 5th chord mean the power chord and the three chord
in the end of chorus is running chords.
Hear the sound and you will know what i mean...

Solo

e||---------------------------------------------------------------------|
B||---------------------------------------------------------------------|
G||------------------------------------------2---2-4-2-4-5-4-5----------|
D||------------------------2---2-4-2-4-5-4-5---5------------------------|
A||------2---2-3-2-3-5-3-5---5------------------------------------------|
E||--3-5---5------------------------------------------------------------|

e||--------------2---2-3-2-3-3s5--3-5-5s7--5-7-7s8--7-8-8s10--8-10--10s12-----|
B||--3---3-5-3-5---5----------------------------------------------------------|
G||----5----------------------------------------------------------------------|
D||---------------------------------------------------------------------------|
A||---------------------------------------------------------------------------|
E||---------------------------------------------------------------------------|

e||--10-12-12s14--12-14-14s15--14-15-14-15--17b--15-15-14-15-14--12--14-------|
B||---------------------------------------------------------------------------|
G||---------------------------------------------------------------------------|
D||---------------------------------------------------------------------------|
A||---------------------------------------------------------------------------|
E||---------------------------------------------------------------------------|

e||--12-14-12-10-12--10-12-10----12----12----12----------------------|
B||---------------------------13----12----10------8-8~---------------|
G||------------------------------------------------------------------|
D||------------------------------------------------------------------|
A||------------------------------------------------------------------|
E||------------------------------------------------------------------|

e||------------------------------------------------------------------|
B||--7-8-10-8-7-8-7h8-------8----------------------------------------|
G||-------------------7-7s9---9-7-9-7------9---9---9-----------------|
D||-------------------------------------10---9---7---7s5~------------|
A||------------------------------------------------------------------|
E||------------------------------------------------------------------|

U guyz can try it out!!
A.C.A.B - Fight For You Right

standard tuning

(intro)

G Bm c D
e:---3--------2---------3--------5--5-7-5---5---------|
B:---3------2/3---------5--------7--------8-----------|
G:---4--------4---------5--------7--------------------|(2x repeat)
D:---5--------4---------5--------7--------------------|
A:---5--------2---------3--------5--------------------|
E:---3--------2---------3--------5--------------------|


(verse)


G Bm
I'm really sad 'bout it

C D
To see the stupid in your head

G Bm
You acting like a pussy

C D
Killing all the guts you got




G Bm
But you don't even fight

C D
When your enemy not satisfied

G Bm
You think about disaster

C D
but all you do is cryin' all night





(chorus)

Em D C Bm C
Hey you where your guts

D Em D C Bm C D
See the people change if you keep on cryin' all night

Em D C Bm C
Hey you where your guts

D Em D C C Bm A G
Can't you fight for your right




(solo)

e:------------------------------------------------------------------2---2-3-|
B:--------------------------------------------------------3--3-5-3-5--5-----|
G:---------------------------------------2--2-4-2-4-5-4-5--5----------------|
D:---------------------2---2-4-2-4-5-4-5--5---------------------------------|
A:----2---2-3-2-3-5-3-5--5--------------------------------------------------|
E:3-5---5-------------------------------------------------------------------|


e:---2-3-5-3-5-7-5-7-8-7-8-10-8-10-12-10-12-14-12-14-15-14-15-14-15-15~~----|
B:--------------------------------------------------------------------------|
G:--------------------------------------------------------------------------|
D:--------------------------------------------------------------------------|
A:--------------------------------------------------------------------------|
E:--------------------------------------------------------------------------|


e:---15-15-14-15-14-12-12-14~-14-12-12-14-12-10-12~-12-10-12-10-------------|
B:--------------------------------------------------------------------------|
G:--------------------------------------------------------------------------|
D:--------------------------------------------------------------------------|
A:--------------------------------------------------------------------------|
E:--------------------------------------------------------------------------|


e:---12----12----12----12---------------------------------------------------|
B:------13----12----10------------------------------------------------------|
G:------------------------12~~-12-12-11-12/14-12-11-12-11h12----11----------|
D:-----------------------------------------------------------12----12/14----|
A:--------------------------------------------------------------------------|
E:--------------------------------------------------------------------------|


e:--------------------------------------------------------------------------|
B:--------------------------------------------------------------------------|
G:---12---------------------------------------------------------------------|
D:------14-12-12-14-12-10-12-9-12-7-12-5-12-5~~-----------------------------|
A:--------------------------------------------------------------------------|
E:--------------------------------------------------------------------------|


repeat verse & chorus till da end


This is my first tab so i hope you guys can go easy with it..
this pretty good song and easy to play though.. (best to play this song in full chords)
have fun n enjoy it!!!
unite n fight!!!!

if you guys have any comment, plzz send yours to my email.. weird2417@yahoo.com