Acab — Our Country

song title:Our country
Artist:a.c.a.b
Tabbed by: Muhd fazli kamarudin
E-mail:(oli07@singnet.com.sg) or (hate_07@hotmail.com)

This song is in 'Standard' Tuning
E-A-D-G-B-E

Listen to the song and try to catch
the tab that i have wrote...

INTRO
e|----------------------------------------------------9---9---9---9-------------|
B|---10---10---10---10-----12---12---12---12------------------------------------|
G|------9----9----9----9------9----9----9----9-------9---9---9---9--------------|
D|------------------------------------------------------------------------------|
A|------------------------------------------------------------------------------|
E|------------------------------------------------------------------------------|

e|----------------------9-----------------------------------|
B|---12---12---12-------12--10----10------------------------|
G|------9----9----9-----------------------------------------|
D|----------------------------------------------------------|
A|----------------------------------------------------------|
E|----------------------------------------------------------|

e|---------------------------------------------------------------|
B|-----10---10---10---10----9---9---9---9------7---7---7---7-----|
G|---9----9----9----9---------9---9---9---9------9---9---9---9---|
D|---------------------------------------------------------------|
A|---------------------------------------------------------------|
E|---------------------------------------------------------------|

e|--------------------------------------------|
B|---9---9---10---12---10---------------------|
G|-----9---9----9----9------------------------|
D|--------------------------------------------|
A|--------------------------------------------|
E|--------------------------------------------|

VERSE
e|------------------------------------------------------------------------|
B|------------------------------------------------------------------------|
G|------------------------------------------------------------------------|
D|-------------------------------------------------------2-2-2--2-2-2-----|
A|---7-7-7--7-7-7---6-6-6--6-6-6---4-4-4--4-4-4---2-2-2--2-2-2------------|
E|---5-5-5--5-5-5---4-4-4--4-4-4---2-2-2--2-2-2---------------------------|

e|------------------------------------------------------------------------|
B|------------------------------------------------------------------------|
G|-------------------------------------------------------2-2-2--2-2-2-----|
D|---7-7-7--7-7-7---6-6-6--6-6-6---4-4-4--4-4-4---2-2-2--2-2-2------------|
A|---5-5-5--5-5-5---4-4-4--4-4-4---2-2-2--2-2-2---------------------------|
E|------------------------------------------------------------------------|

i will get the chorus as soon as possible... :)

try it out...