Acab — Racial Hatred

Racial Hatred by A.C.A.B
Performed on Eastern Oi!
Tabbed by LAn a.k.a cadefoster
Email cadefoster117@hotmail.com

Tuning standard


~~~~~~ = vibrato
h = hammer
p = pull off
b = bend
br = bend release


[Solo]
e|---12--------|--12-15-13-12-13-12------------------------------------|
B|------15b----|-------------------15-12h15p12-12h15p12-12-------------|
G|-------------|-------------------------------------------------------|
D|-------------|-------------------------------------------------------|
A|-------------|-------------------------------------------------------|
E|-------------|-------------------------------------------------------|
*************
Play few times

e|----------------------------------------------------------------------|
B|----------------------------------------------------------------------|
G|---------14-12-14-14b-12----------------12----12-14-14b-12-14-12------|
D|-----------------------14-12-14----12-14--14--------------------12-14-|
A|---------------------------------14-----------------------------------|
E|----------------------------------------------------------------------|

e|---------------|----------------------|---------------------------------------|
B|---------------|----------------------|---------------------------------------|
G|------------12-|---12-14-14br-12------|---12-14-14b~~--14b~~--14br-12-14-12~~-|
D|-------12-14---|-14-------------14~~~-|-14------------------------------------|
A|-12-14---------|----------------------|---------------------------------------|
E|---------------|----------------------|---------------------------------------|
***************
Play few times

Any comments email me at cadefoster117@hotmail.com
Feel free to mail me with questions.
Good luck and have a nice day! Cheers!
To chat with me live! Find cadefoster^ at #temerloh in Mirc.