Acab — Skinhead For Life

this is skinhead 4 life.
here is some legend
s=slide
h=hammer

intro
------------------------------------------------------------------------------------------
------------------------------------------------------------------------------------------
------------------------------------------------------------------------------------------
---------------------2----2---2-----2-3(h)------------------------------------------------
---3----3---3---3---3--3-3---3--3-3--------2-----2---2-----2-3(h)--3-----3--------------3-
--5-5-5---5--5-5--------------------------3--3-3---3---3-3--------5--5-5---5-3-0-23-5----- (4x)
guitar 1 play the intro while guitar 2 plays the verse

verse
--------------------------------------------------------------------------------
--------------------------------------------------------------------------------
------5-------------------------------------------------------------------------
---7--5--5--7-------------------------------------------------------------------
---7--3--5--7-------------------------------------------------------------------
---5-----3--5-------------------------------------------------------------------

pre chorus
-------------------------------------------------------------------------------
-------------------------------------------------------------------------------
---5-----7-----5---------------------------------------------------------------
---5--5--7--7--5--7------------------------------------------------------------
---3--5--5--7--3--7------------------------------------------------------------
------3-----5-----5------------------------------------------------------------
this is played 2 times but the second one end with this
-------------
-------------
------9------
------9------
------7------
-------------

chorus
it is identical to the verse

solo
-------------------------------------------------------------------------------------------------
-------------------------------------------------------------------------------------------------
--9--9--9---9-7-5--9---12(s)---9--9-9---7-7---5-5----7--7--7---7---7-5-4--4-5(h)-4-----4---------
7---------------------------------------------------------------------------------------7---7-6-7
-------------------------------------------------------------------------------------------------
-------------------------------------------------------------------------------------------------

note the verse and chorus power chord are strum a few times. juz listen to the
music and u will know it
this is the whole song.
i hope u like it
this is done by sopre (yusoff)
if u need any help or have any question email me at fender226@hotmail.com
p.s.: have a good time playing this song and remember to rate it