Accept — Fast As A Shark

На этой странице Вы можете ознакомиться с 2 версиями подбора аккордов для гитары к песне "Fast As A Shark" группы (исполнителя) "Accept".

ACCEPT - FAST AS A SHARK
From the Album RESTLESS AND WILD
Copyright 1982 BRAIN RECORDS
Version 1.0 - (JUNE - 2001)

Transcribed by: RENE C

For Questions, Comments, Newest Version, or Corrections contact
(YOUR NAME): at (YOUR E-MAIL ADDRESS)

Check Out Death Warp, With More Transcriptions On It:
http://www.wam.umd.edu/~ekubica

.. - palm mute / - slide up to
- slide down to ~ - vibrato
h - hammer on b - bend
p - pull off Suffixes for bend
ph - pinch harmonic
f - full bend h - half bend
* - see comment r - release t - tap bend
X - percussion mute ~ - vibrato bend
@ - slight palm mute () - ghost note, sustained note

Tune Gtr to E


Riff A
|---------------------------------|
|---------------------------------|
|-----------------54-----54-----|
|-----------------32-54-32-----|
|---------------------32---------|
|--0000-0000-0000-----------------|

Riff B
|------------------------------------------|
|------------------------------------------|
|------------------------------------------|
|------------------------------------------|
|------------------------------------------|
|--5555555555555555-33333333-111111111-----|

Riff C
|------------------------------------|
|------------------------------------|
|-----------------2------------------|
|--7-7-7--101010--2------------------|
|--5-5-5--8-8-8---0----22222-2222----|
|------------------------------------|

Riff D
|----------------------------------------|
|----------------------------------------|
|----------7---9------------9-7---9-7----|
|--5---3---7---9---5---3----9-7---9-7----|
|--5---3---5---7---5---3----7-5---7-5----|
|--3---1-----------3---1--0-----0--------|

Riff E
|-------------------------|
|-------------------------|
|-------------------------|
|--4-4-4--4-4-4--4-4-4----|
|--2-2-2--2-2-2--2-2-2----|
|-------------------------|

Riff F
|--------------------------------------------------------------------|
|--------------------------------------------------------------------|
|------3-5--6-5-3-----3-5------3-5--6-5-3------3-5------6-8--9-8-6---|
|------3-5--6-5-3-----3-5------3-5--6-5-3------3-5------6-8--9-8-6---|
|--333------------333------333-------------333------666--------------|
|--------------------------------------------------------------------|
| |
|--------------------------------------------------------------------|
|--------------------------------------------------------------------|
|------6-8------9-11--12-11-9---------9-7----------------------------|
|------6-8------9-11--12-11-9---------9-7---------5--4---------------|
|--666------999----------------end 1--7-5--end-2--5--4---------------|
|-------------------------------------------------3--2---------------|

Riff G
|---------------------------|-------------|
|---------------------------|-------------|
|---------------------------|--7--2--4----|
|---------------------------|--7--2--4----|
|--5-2---------5-2---5-7----|--5--0--2----|
|--3-0-000-000-3-0-0-3-5----|-------------|

End
|-----------------|
|-----------------|
|--9--5--7--------|
|--9--5--7---2----|
|--7--3--5---2----|
|------------0----|
Fast As A Shark - Accept
Tabbed by Scott Kolby (skolby@home.com)


G|-----------------------
D|----------------------- 2x
A|------------1-0-1-0-10-
E|-0000000000------------

G|------------------------------
D|------------------------------
A|-0000000000-------------------
E|------------33333333-11111111-

G|-----------------------
D|----------------------- 2x
A|------------1-0-1-0-10-
E|-0000000000------------

G|-------------------------------------
D|-00000000-33333333-------------------
A|-------------------00000000-22222222-
E|-------------------------------------

Repeat all

G|-----------------------------
D|-------------2-------0---2--- 2x
A|-----0---3-------3------(2)--
E|-3---------------------------

Repeat all and end on the 2nd fret of A, not D

G|--------------------------
D|-------------------------- 2x
A|-----1--3--4-3-1----1-3---
E|-3---------------3--------

G|--------------------------
D|--------------------------
A|-----1--6--7-6-4----4-6---
E|-6---------------6--------

G|--------------------------
D|-----2--4--5-4-2----2-0---
A|-4---------------4--------
E|--------------------------

G|--------------------------
D|--------------------------
A|-----1--3--4-3-1----1-3---
E|-3---------------3--------

G|--------------------------
D|--------------------------
A|-----1--6--7-6-4----4-6---
E|-6---------------6--------

G|---------------------------
D|-----2--4--5-4-2----0------
A|-4---------------4----4----
E|---------------------------

G|----------------------------------
D|-------0------------------0-------
A|-2---4---4--0-------0---4---4--2--
E|----------------2-----------------

G|-------------------------
D|-------------------------
A|-2------------0--1-2-3-4-
E|------2----3-------------

G|---------------------------------------------
D|--------------------------------------------- 2x
A|-5555555555-7777777777-0000000000-5555555555-
E|---------------------------------------------

G|---------------------------------------
D|---------------------------------------
A|-2222222222-7777777777-0000000000-5----
E|---------------------------------------

G|--------------------------------
D|------------------------0-------
A|--------------------------0-2---
E|-3-0---3-0--3-5--3-0------------

G|-----------------------------
D|-------------2-------0---2--- 3x
A|-----0---3-------3-----------
E|-3---------------------------

G|-------------------------------------------------
D|-------------2------0-----0-----0-----2-----0--2-
A|-----0---3-------3-----3-----3-----------3-------
E|-3-----------------------------------------------