Accept — Flash Rocking Man

ACCEPT - FLASH ROCKING MAN
From the Album RESTLESS AND WILD
Copyright 1982 BRAIN - RECORDS
Version 1.0 - (JAN - 2001)

Transcribed by: (RENE CHRESTENSEN)

For Questions, Comments, Newest Version, or Corrections contact
(YOUR NAME): at (YOUR E-MAIL ADDRESS)

Check Out Death Warp, With More Transcriptions On It:
http://www.wam.umd.edu/~ekubica

.. - palm mute / - slide up to
- slide down to ~ - vibrato
h - hammer on b - bend
p - pull off Suffixes for bend
ph - pinch harmonic
f - full bend h - half bend
* - see comment r - release t - tap bend
X - percussion mute ~ - vibrato bend
@ - slight palm mute () - ghost note, sustained note

Tune Gtr to E

(NAME OF SONG)

Riff A
|-------------------------------------------------|
|-------------------------------------------------|
|----5-----7-----5-----7-----4h5------------------|Gtr
|----5-----7-----5-----7-----4h5------------------| I
|0-0---0-0---0-0---0-0---0-0----------------------|
|-------------------------------------------------|
| |
|-------------------------------------------------|
|-------------------------------------------------|
|--------------------------------5--4--2----------|Gtr
|--------------------------------5--4--2----------| II
|--------------------------------3--2--0----------|
|-------------------------------------------------|

Riff B
|--------------------------------------------------------|
|-------------------------------------------------3------|
|-7-----------4---5-------------7----------4---2--2------|Gtr
|-7-----------4---5-------------7----------4---2--0------| I+II
|-5-----------2---3----3-2-0----5----------2---0---------|
|--------------------------------------------------------|
| |
|--------------------------------------------------------|
|-----------------------------------------------6--------|
|-7-----------4---5-------------7----------4----5--------|Gtr
|-7-----------4---5-------------7----------4----3--------| I+II
|-5-----------2---3----3-2-0----5----------2-------------|
|--------------------------------------------------------|

Chorus
|--------------------------------------------------------------------|
|--------------------------------------------------------------------|
|-5----4----2---------5----7-----------------------------------------|
|-5----4----2----5----5----7----9--9--9--9--9--9--9--9--9--9---------|
|-3----2----0----5----3----5----7--7--7--7--7--7--7--7--7--7---------|
|----------------3---------------00-00-00-00-00-00-00-00-00----------|

Riff C
|--------------------------------------------|
|--------------------------------------------|
|--------------------------------------------|
|---------------------------------7---4------|
|-5-/4---------5/4---------5/4-5--5---2------|
|-3-/2-2-2-2-2-3/2-2-2-2-2-3/2-3-------------|

End
|--------------------------------------------|
|--------------------------------------------|
|5---2--2----5---2--2---5---2--2---4---------|
|5---2--2----5---2--2---5---2--2---4---------|
|3---0--0----3---0--0---3---0--0---2---------|
|--------------------------------------------|


Flash Rockin' Man

They all know your name
They know you're a star
You've been around for ever
And you know who you are

They buy all your records
They come to the gigs
They wanna see you rock'n'roll

Your life is full of action
Your life is full of sound
A Rock'n'Roll magic man
Stamp your feet big man in town

You know you're an idol
The leader of the gang
A juvenile's hero

Turn on the lights
There's no end in sight

Flash rockin' man
Flash rockin' man

They wanna feel your volume
They wanna live your life
They wanna be like you
Every day and every night

You're walking down the alleys
You're a famous man
Immortal so damn holy

Turn on the lights
Show us tonight - yes tonight

Flash rockin' man
Flash rockin' man
Flash rockin' man

You've been behind the scenes
And the fools laughed so loud
You are a well known man
But alone I n the crowd

Tormented and mistreated
Deal everyday
A servant of the yes-men
If the people knew what would they say

You know what it's like
So turn on the lights
So turn off the lights

Flash rockin' man
Flash rockin' man
Flash rockin' man
Flash rockin' man