Accept — Shake Your Heads

ACCEPT - SHAKE YOUR HEADS
From the Album RESTLESS AND WILD
Copyright 1982 - BRAIN RECORDS
Version 1.0 - (FEB. - 2001)

Transcribed by: RENE

For Questions, Comments, Newest Version, or Corrections contact
BATHORY@HUK.K64.DK

Check Out Death Warp, With More Transcriptions On It:
http://tiger.towson.edu/~dalvis1

.. - palm mute / - slide up to
- slide down to ~ - vibrato
h - hammer on b - bend
p - pull off Suffixes for bend
ph - pinch harmonic
f - full bend h - half bend
* - see comment r - release t - tap bend
X - percussion mute ~ - vibrato bend
@ - slight palm mute () - ghost note, sustained note

Tune Gtr to E


Riff A (PLAY THE BIT AFTER THE CHORUS LIKE THIS BUT ON E STR.)
|--------------------------------------------------------------------|
|--------------------------------------------------------------------|
|--------------------------------------------------------------------|
|--7--9-(9)-(9)-(9)-9--7--9-(9)-(9)-(9)--12---5--7-(7)-(7)-(7)----|
|--5--7-(7)-(7)-(7)-7--5--7-(7)-(7)-(7)--10---3--5-(5)-(5)-(5)----|
|--------------------------------------------------------------------|
| |
|--------------------------------------------------------------------|
|--------------------------------------------------------------------|
|--------------------------------------------------------------------|
|--7--9-(9)-(9)-(9)-------------------------------------------------|
|--5--7-(7)-(7)-(7)-------------------------------------------------|
|--------------------------------------------------------------------|

FILL
|--------------------------------------------------------------------|
|--------------------------------------------------------------------|
|--------------------------------------------------------------------|
|--------------------------------------------------------------------|
|--------------------------------------------------------------------|
|-0-0-0-0-0-0-0-0-0-0-0-0-0-0-0-0-0-0-0-0-0-0-0-0-0-0-0-0-0-0-0------|

VERSE
|--------------------------------------------------------------------|
|--------------------------------------------------------------------|
|-9----7----9----7----12----7----------------------------------------|
|-9----7----9----7----12----7----------------------------------------|
|-7----5----7----5----10----5----------------------------------------|
|--------------------------------------------------------------------|

BRIDGE
|--------------------------------------------------------------------|
|--------------------------------------------------------------------|
|-----------------------------------------5------7-----X-X--X-X------|
|-7--9-9----7--9-9----7--9-9----7--9-9----5------7-----X-X--X-X------|
|-7--9-9----7--9-9----7--9-9----7--9-9----3------5-----X-X--X-X------|
|-5--7-7----5--7-7----5--7-7----5--7-7-------------------------------|

CHORUS
|--------------------------------------------------------------------|
|--------------------------------------------------------------------|
|--------------------------------------5-----7------9-9--------------|
|-7-7--5-5---5-5--7-7---7-7--5-5-------5-----7------9-9--------------|
|-7-7--5-5---5-5--7-7---7-7--5-5-------3-----5------7-7--------------|
|-5-5--3-3---3-3--5-5---5-5--3-3---0-0----0-0---0-0------------------|

INTERLUDE
|--------------------------------------------------------------------|
|--------------------------------------------------------------------|
|--------------------------------------------------------------------|
|-----------------------------9--7--5--2-2---------------------------|
|-7---9----9--12----5--7----9--7--5--2-2---------------------------|
|-5--7----7--10----3--5----7--5--3--0-0---------------------------|

SOLO RIFF
|--------------------------------------------------------------------|
|--------------------------------------------------------------------|
|--------------------------------------------------------------------|
|-----------------5-5-5-5-----------------2--------------------------|
|-2-4-5--7-7-7-7--3-3-3-3--9-9-9-9--7--5--2--------------------------|
|-0-2-3--5-5-5-5-----------7-7-7-7--5--3--0--------------------------|