Ace Troubleshooter — Kiss Goodnight

SONG:KISS GOODIGHT
ARTIST:ACE TROUBLESHOOTER
ALBUM:DONT STOP A' ROCKIN'

THIS IS A GREAT SONG,I WROTE THIS ONE OUT CUZ I WAS BORED


INTRO

A D E F# E D E
e----------------------------------------------------------------------------
b------------------------------10-9------------------------------------------
g--------------7/-99999999999--------1111111111--99999--77777--99999---------
d--7777777777--7/-99999999999--------1111111111--99999--77777--99999---------
a--7777777777--5/-77777777777--------9-9-9-9-9---77777--55555--77777---------
e--5555555555----------------------------------------------------------------


verse prt 1 x2
A E D E
e----------------------------------------------------------------------------
b----------------------------------------------------------------------------
g--------------99999999---7777777777--999999999------------------------------
d--7777777777--99999999---7777777777--999999999------------------------------
a--7777777777--77777777---5555555555--777777777------------------------------
e--5555555555----------------------------------------------------------------


verse prt 2
G# F# E D Eb/E D E
e----------------------------------------------------------------------------
b----------------------------------------------------------------------------
g-------------------------999999999-------------------7777777----9999999-----
d--666666666--444444444---999999999--777777777/88/99--7777777----9999999-----
a--666666666--444444444---777777777--777777777/88/99--5555555----7777777-----
e--444444444--222222222--------------555555555/66/77-------------------------


CHORUS
A E D E
e----------------------------------------------------------------------------
b----------------------------------------------------------------------------
g--------------9999999999-----77xxx77xxxxx77xxx---99999999-------------------
d--7777777777--9999999999-----77xxx77xxxxx77xxx---99999999-------------------
a--7777777777--7777777777-----55xxx55xxxxx55xxx---77777777-------------------
e--5555555555----------------------------------------------------------------

BOTH VERSES AGAIN
CHORUS


INTERLUDE


CHORUS x2
VERS PRT 2 x1 then this..
at end of second time play this
e------------------------------------------- --------------------------------
b------------------------------------------- --------------------------------
g------------------------------------------- ----9---9---9-9--9--------------
d---9xx999-6-xx666--9-xx999--6-xx666-------- ----9---9---9-9--9--------------
a---9xx999-6-xx666--9-xx999--6-xx666--x2---- ----7---7---7-7--7--------------
e---7xx666-4-xx333--7-xx666--4-xx333-------- --------------------------------


second guitar is palmuting the same chords but you can do that with one one guitar.


VERSE PART 1(PALMUTED)
VERSe PRT 2

CHORUS


END ON A


This is my first tab but im sure the most of it is right.Questions?EMail me
at Somerealdumbkid@aol.com -CHRIS AKA TRUNKS