Acid Bath — Scream Of The Butterfly

На этой странице Вы можете ознакомиться с 2 версиями подбора аккордов для гитары к песне "Scream Of The Butterfly" группы (исполнителя) "Acid Bath".

Band:     Acid Bath
Song: Scream of the Butterflies
Album: When the Kite String Pops

Bass Intro:

G|--9--5---7--5--4-------|---------------------------|
D|7------7---------5--7--|----9--5-----7--5--4-------|
A|-----------------------|--7-------7-----------5--7-|
E|-----------------------|---------------------------|

Bass Verse:

G|--10--9-------10--9-------10--9----12--10---9-9----|
D|7-------10--7-------10--7-------10-------------10--|
A|---------------------------------------------------|
E|---------------------------------------------------|

Bass Bridge:

G|----------------7--5--4----------------------------|
D|----------------------------------------7--5--4----|
A|0--0-0--3-3-2-2------------------------------------|
E|------------------------0--0-0--3-3-2-2------------|

Bass Chorus:

G|---------------------------------------------------|
D|---------2-----0-----------------------------------|
A|--0---0-----3-----2---------2-----0----------------|
E|---------------------0---0-----3-----2-------------|

Bass Outro:

G|----9-9--5-5-----7-7--5-5--4-4---------------------|
D|7-7----------7-7---------------5--5----------------|
A|---------------------------------------------------|
E|---------------------------------------------------|

Bass Outro (cont.)

G|---------------------------------------------------|
D|-----9-9--5-5-----7-7--5-5--4-4--------------------|
A|7-7-----------7-7---------------5--5---------------|
E|---------------------------------------------------|

Submitted By: Damon Henson
E-mail: angelofdeath_214@yahoo.com
Acid Bath - Scream of the Butterfly
Spaz (dr_death46290@hotmail.com)

This is the correct way to play the intro/1st verse.
E-tuning

------------------------------
------------------------------
------------------------------
------4--0-------2--0---------
--2------------2----------4--0
------------------------------

then its

------------------------------
------------------------------
------------------------------
------------------------------
------4--0-------2--0---------
--2------------2----------4--0

if anybody's got the rest of the song, e-mail it to me.