Adams Bryan — Here I Am

На этой странице Вы можете ознакомиться с 4 версиями подбора аккордов для гитары к песне "Here I Am" группы (исполнителя) "Adams Bryan".

----------------------------------------------------------------------------
HERE I AM - Bryan Adams
----------------------------------------------------------------------------
Tabbed by:DJ_Inferno2000
Email:DJ_Inferno2000@hotmail.com

super song from Spirit: Stallion of the Cimarron.
I've havent been able to tab the solo but check out the other posts. hav phun!!



Tuning: capo 1st, e B G D A E

Riff 1, Part 1
e|-----------------------------------|
B|----------11--11---8-8-------------|
G|--------8--------8-----10---8-7----| x2
D|--10-10-------------------------10-|
A|-----------------------------------|
E|-----------------------------------|

Riff 1, Part 2
e|-----------------------------------|
B|----------8-8----------------------|
G|--------8----10--------------------| x2
D|--10-10----------------------------|
A|-----------------------------------|
E|-----------------------------------|


Verse

D
Here i am
A
This is me
G D
Theres no where else on earth i'd rather be
G
Here i am
D
Its just me and you
C A
Tonight we make our dreams come true

CHORUS
Bm G
Its a new world
D A
Its a new start
Bm G D A
Its alive with the beating of young hearts
Bm G
Its a new day
D A
Its a new plan
Bm G (single strum,let sustain till end of next line)
I've been waiting for you

Here i am

Riff 1 part 1 and 2

next verse is the same as previous one

Verse 2

Here we are
We've just begun
And after all this time our time has gone
Yeah Here we are
Still going strong
Right here in the place where we belong

[CHORUS]

[SOLO]

[CHORUS]

fade out...
Artist: Bryan Adams
Song: Here I am
Tabbed by: Subodh Pun

I have just figured out the chord and hunted a small part of the riff of the song.
The intro and the solo part will be coming soon.

Here I am
Intro:
Chorus I
E B
Here I am, this is me
A E
There's nowhere else on earth I'd rather be
A E
Here I am, just me and you
D B
Tonight we'll make our dream come true
Chorus II
E A E B
It's a new world, it's a new start
E A E B
It's a life with the beating of young hearts
E A E B
It's a new day, it's a new plan
A B
I've been waiting for you
Here I am
|-------7------------------------|
|--------------7--9--7-----------|
|--8h9------------------9-8p6----|
|-----------9--------------------|
|--------------------------------|
|--------------------------------|

|-----------7------------------------
|------------------7--9--7-----------
|------8h9------------------9-8p6----
|--9------------9--------------------
|------------------------------------
|------------------------------------
Repeat twice then

|-------------------------(4)-----
|-----------5---------------------
|--------------6------------------
|--9p6--7---------7---------------
|---------------------------------
|---------------------------------
here i am
riff
E B
Here we are, we've just begun
A E
And after all this time, my time has come
A E
Yeah here we are, still going strong
D B
Right here in the place where we belong
Repeat Chorus II
Solo
A B
Waiting for you
Repeat Chorus I
Repeat Chorus II (twice)
Play E/A/B regularly
Here I am (twice)
Right next to you
Here I am
And suddenly the world is all brand new
Here I am (twice)
I am going to stay
And nothing's standing in our way
Oh here i am
Here I Am

--------------------------------------------------------------------------------

Capo 1st fret! (so D = D#; but for tab 3 = 3 still, so 1 = open string)
Intro riff: (let ring where possible)

x3
E--------------6-----------3----------3--1------------|-----------3---------6-------|
B----------4-----------4----------1---------4--3--1--|--------4---------4-----------|
G-------5----------5----------------------------------|-----1--------1--------------|
D------------------------------1----------------------|-----------------------------|
A---3------------------------------------1------------|-----------------------------|
E--------------4---------------------------------------|--1----------------------4--|

Verse 1:
D A
Here I am - this is me
G D
There's no where else on earth I'd rather be
G D
Here I am - it's just me and you
C A
And tonight we make our dreams come true

Chorus:
Bm G D A
It's a new world - it's a new start
Bm G D A
It's alive with the beating of young hearts
Bm G D A
It's a new day - it's a new plan
Em
I've been waiting for you
G
Here I am

Riff:

x3
E--------------------------------------------------|----------------------------|
B----------------11-------------8-8-------------|--------------------------8-8--|
G------------8--------------8----------10--8--7-|--------------8-------8--------|
D---10--10------------10------------------------|---10----10------10------------|
A-------------------------------------------------|-------8---------------------|
E-------------------------------------------------|-----------------------------|

Verse 2: same as verse 1
Here we are - we've just begun
And after all this time - our time has come
Ya here we are - still goin' strong
Right here in the place where we belong

(Chorus)

Solo:

D G
E--11--13--11---11--13--11--|--11--13--11---11--13--11--|--11--13--11---11--13--11--|--11--13--11---11--13--11-----------|
B--11--11--11---11--11--11--|--11--11--11---11--11--11--|--11--11--11---11--11--11--|--11--11--11---11--11--11-----------|
G--x----x---x-----x---x----x---|--x----x---x-----x---x----x---|--1----1---1----1---1----1---|--1----1---1----1---1----1--|
D--1----1---1----1---1----1---|--1----1---1----1---1----1---|--x----x---x-----x---x----x---|--x----x---x-----x---x----x--|
A--x----x---x-----x---x----x---|--x----x---x-----x---x----x---|--11--11--11---11--11--11--|--11--11--11---11--11--11-----|
E--11--11--11---11--11--11--|--11--11--11---11--11--11--|-------------------------------|--------------------------------|

Bm G
E--11--13--11---11--13--11--|--11--13--11---11--13--11--|--11--13--11---11--13--11--|--11--13--11---11--13--11---------------|
B--11--11--11---11--11--11--|--11--11--11---11--11--11--|--11--11--11---11--11--11--|--11--11--11---11--11--11---------------|
G--x----x---x-----x---x----x---|--x----x---x-----x---x----x---|--x----x---x-----x---x----x---|--x----x---x-----x---x----x----|
D-10---10--10---10-10---10--|--10---10--10---10-10--10--|--1----1---1----1---1----1---|--1----1---1----1---1----1------------|
A-------------------------------|-------------------------------|--x----x---x-----x---x----x---|--x----x---x-----x---x----x--|
E-------------------------------|-------------------------------|--11--11--11---11--11--11--|--11--11--11---11--11--11-------|

same chords as chorus:

E--11-11--11----11-----11/13-13-13-13--11-x-11-11-----------x-x--8-8--8--6-6--8-8-86--6-6--6-6-6-6--|
B--11-11-----11----11--11/13-13-13-13--11-x-11-11-----11---x-x--8-8--8--6-6--8-8-86--6-6--6-6-6-6--|
G----------------------------------------------------------8-----------------------------------------|
D----------------------------------------------------------------------------------------------------|
A----------------------------------------------------------------------------------------------------|
E----------------------------------------------------------------------------------------------------|

E-------------------------------------------------------------------------------------------------------|
B----------------------------------------------------------------------------8-8-10--8-8-10--8-10-8-10--|
G--8/10-10-10-10-10--8-8--------8--10/12-12-12-12--10-10-10--8-8---8-8-8---8-8-8----8-8--8-8------------|
D--8/10-10-10-10-10--8-8--8h10--------------------------------------------------------------------------|
A-------------------------------------------------------------------------------------------------------|
E-------------------------------------------------------------------------------------------------------|

(Verse 1)

(Chorus x2)

Outro: same chords as chorus

Here I am - next to you
And suddenly the world is all brand new
Here I am - where I'm gonna stay
Now there's nothin standin in our way
Here I am - this is me
Song: Here I am
Artist: Bryan Adams
Album: Spirit (Stallion of the Cimarron)
Tabbed by: Subodh Pun

So here it is guys as promised before. I have tried my best to figure out the
solo part of the song.I know it's not 100% correct. It's about 95% accurate.....I
think so. If there's anything you feel which is not correct( that comes under 5%
of mistake), pls don't hesitate to share it with me.

|--12--14--12p0-0-0-----|
|-----------------------|
|-----------------------| repeat 15 times
|-----------------------|
|-----------------------|
|-----------------------|

(this part is quite confusing. I am not sure if it is a guitar or some special
effect has been added)
|--------16-------------|--------------|
|-----------------------|--------------|
|-----------------------|--------------|
|-----------------------|--------------|
|-----------------------|--------------|
|-----------------------|--------------|

|------12-12-12-12-12-12|-12------12-------12----|
|------12-12-12-12-12-12|-----12------12---------|
|-----------------------|------------------------|
|-----------------------|------------------------|
|-----------------------|------------------------|
|-----------------------|------------------------|


|--1214-14-14-14-12--|7(pm)-7(pm)-7-7|--------|
|--1214-14-14-14-12--|7(pm)-7(pm)-7-7|--------|
|---------------------|------------------------|
|---------------------|------------------------|
|---------------------|------------------------|
|---------------------|------------------------|

|----9(pm)-9(pm)--9-9-9-|7-79-9-9-9-7-----------|
|----9(pm)-9(pm)--9-9-9-|7-79-9-9-9-7-----------|
|-----------------------|------------------------|
|-----------------------|------------------------|
|-----------------------|------------------------|
|-----------------------|------------------------|

|----7-7-7-7-7----------|---0-0-0-0-0-0----------|
|----7-7-7-7-7----------|---57-7-7-7-5----------|
|-----------------------|------------------------|
|-----------------------|------------------------|
|-----------------------|------------------------|
|-----------------------|------------------------|

|------------------------|-----0-0-0-0-0-0--------|
|---------5--------------|-----59-9-9-9-7---5----|
|----4h6----6------------|--------------------6---|
|------------------------|------------------------|
|------------------------|------------------------|
|------------------------|------------------------|

|----4-4-4-5-4-5-4-5----|------------------------|
|----5-5-5-5-5-5-5-5----|------------------------|
|-----------------------|------------------------|
|-----------------------|------------------------|
|-----------------------|------------------------|
|-----------------------|------------------------|