Adams Bryan — I Will Always Return

На этой странице Вы можете ознакомиться с 2 версиями подбора аккордов для гитары к песне "I Will Always Return" группы (исполнителя) "Adams Bryan".

I Will Always Return

--------------------------------------------------------------------------------

Capo 3rd fret! (so G = Bb)
Verse 1:
G D C
I hear the wind call your name
Em D C
It calls me back home again
Am D G C
It sparks up the fire - a flame that still burns
G C D
Oh it's to you I'll always return

Riff:

(D) G D C G D C
E------6--5--6-----------8--5--6--|
B---6------------------6----------|
G---------------------------------|
D---------------------------------|
A---------------------------------|
E---------------------------------|

Verse2: same as Verse 1
I still feel your breath on my skin
I hear your voice deep within
The sound of my lover - a feeling so strong
It's to you - I'll always belong

Verse 3:
C G Em
Now I know it's true
Am G D
My every road leads to you
C G Em
And in the hour of darkness darlin'
Am G D
Your light gets me through

Bridge:
C G Em
Wanna swim in your river - be warmed by your sun
C G A B
Bathe in your waters - cos you are the one

Chorus:
C G Em Bm
I can't stand the distance - I can't dream alone
C G Am D
I can't wait to see you - Ya I'm on my way home

Solo:

(D) Em D C G D C Em D C
E------6--5--6----------6-6-6-6--6/8---5------6--5--6---5--3----|
B---6-------------------6-6-6-6-------------6-------------6--4--|
G---------------------------------------------------------------|
D---------------------------------------------------------------|
A---------------------------------------------------------------|
E---------------------------------------------------------------|

(Verse 1)

(Bridge)

Chorus:
C G Em Bm
I can't stand the distance - I can't dream alone
C G Am D C
I can't wait to see you - Ya I'm on my way home

Verse 4:

Em D C
I hear the wind call your name
Em D C
The sound that leads me home again
Am D G Am
It sparks up the fire - a flame that still burns
D Em D C
I'm on my way - I will al - ways return
Em D C
Yes I will al - ways return
Am D G C
I've seen every sunset and with all that I've learned
G C Dsus4 D G
It's to you I will always - al___ ways return
Artist: Bryan Adams
Song: Will Always Return
Album: Spirit
Year: 2002
Tabbed: Soenke K.
E-Mail: SoXSAD@aol.com

Capo auf den 1. Bund

I hear the wind call your name
It calls me back home again
It sparks up the fire - a flame that still burns
Oh it's to you I'll always return


Verzerrte E-Gitarre:
e|------------------------------------|
B|----10---10~~~~-------12---10~~~~---|
G|--9----9------------9----9----------|
D|------------------------------------|
A|------------------------------------|
E|------------------------------------|

Akustische Gitarre:
2x A E D D

A E D
I still feel your breath on my skin
A E D
I hear your voice deep within
D E A D
The sound of my lover - a feeling so strong
A D E
It's to you - I'll always belong


D A F#m
Now I know it's true
D A E
My every road leads to you
D A F#m
And in the hour of darkness darlin'
D A E
Your light gets me through
D A F#m
Wanna swim in your river - be warmed by your sun
D A B C#
Bathe in your waters - cuz you are the one


D A F#m E
I can't stand the distance - I can't dream alone
D A A E
I can't wait to see you - Ya I'm on my way home

Verzerrte E-Gitarre:
e|---------------------7-7-7-7-8-7---------------------------------|
B|----10---10~~~~------------------10--------10---10~~~-9~~~-7~~~~-|
G|--9----9---------------------------------9----9------------------|
D|-----------------------------------------------------------------|
A|-----------------------------------------------------------------|
E|-----------------------------------------------------------------|

A E D
Oh I hear the wind call your name
A E D
The sound that leads me home again
D E A D
It sparks up the fire - a flame that still burns
A D E
Oh, it's to you - i will always return

D A F#m
Wanna swim in your river - be warmed by your sun
D A B C#
Bathe in your waters - cuz you are the one


D A F#m E
I can't stand the distance - I can't dream alone
D A A E A D
I can't wait to see you - Ya I'm on my way home


A E D
Oh I hear the wind call out your name
A E D
The sound that leads me home again
D E A D A
It sparks up the fire - a flame that still burns
D
Yeah, I'm on my way
A E D
i will always return
A E D
Yes, i will always return
D E
I've seen every sunset
A D
And with all that I've learned
A E
Oh it's to you - I will always .... always return


Written by:
Bryan Adams
R. J. Lange
Hans Zimmer

Produced by Patrick Leonard and BA
Additional Production by Gavin Greenaway
Engineered by Michael Verdick, Kevin Globerman, Kevin Churko
Additional Engineering by David Channing, Terry Manning Assisted by Katrina Leigh, Brian Vibberts


?2002 Badams Music Limited (ASCAP); Zomba Enterprises Inc. (ASCAP); SKG Songs (ASCAP)

Tabbad by SoX

Naja kann sein das, dass es noch besser geht aber immerhin besser als garnichts, oder wat???
F?r verbesserungsvorschl?ge mailt mir bitte! SoXSAD@aol.com