Adams Bryan — One Night Love Affair

One Night Love Afair
====================
Bryan Adams (Reckless??)

Intro

|-----------------|-----------------|-----------------|-----------------|
|-----------------|-----------------|-----------------|-----------------|
|-----------------|-7-7-------------|-----------------|-7-7-------------|
|-7-7-------------|-----------------|-7-7-------------|-----------------|

Verse
|-----------------|-----------------|-----------------|-----------------|
|-----------------|-----------------|-----------------|-----------------|
|-----------------|-7-7-7-7-7-7-7-7-|-----------------|-7-7-7-7-7-7-7-7-|
|-7-7-7-7-7-7-7-7-|-----------------|-7-7-7-7-7-7-7-7-|-----------------|

|-----------------|-----------------|-----------------|-----------------|
|-----------------|-----------------|-----------------|-----------------|
|-----------------|-----------------|-----------------|-----------------|
|-7-7-7-7-7-7-7-7-|-4-4-4-4-4-4-4-4-|-2-2-2-2-2-2-2-2-|-0-0-0-0-0-0-0-0-|

Chorus
|-----------------|-----------------|-----------------|-----------------|
|o----------------|-----------------|-----------------|----------------o|
|o5-----5-----5---|-4-----4-----4---|-2-----2----2----|----------------o|
|-----------------|-----------------|-----------------|-3-----3-----5---|