Adams Ryan — Come Pick Me Up

#----------------------------------PLEASE NOTE--------------------------------#
#This file is the author's own work and represents their interpretation of the#
#song. You may only use this file for private study, scholarship, or research.#
#-----------------------------------------------------------------------------#

Title : Come Pick Me Up
Artist : Ryan Adams
Album : Heartbreaker

Transcribed by : Ferry Falkenburg (ferry@ryan-adams.org)

Notes : I've used the versions from Turf Club St Paul MN (2-nov-2002)
and Berlin (6-nov-2002).
#-----------------------------------------------------------------------------#

Ryan Adams - Come Pick Me Up
----------------------------

Standard tuning, capo on third fret (key of Bb)

Chords used:

G Em7 C Csus2 Am7 A7sus2 A5 Csus2/B G[1] C[1]
e --3-- --3-- --3-- --3-- --3-- --3-- ----- --3-- --3-- --0--
B --3-- --3-- --1-- --1-- --1-- --0-- ----- --1-- --0-- --1--
G --0-- --0-- --0-- --0-- --2-- --2-- --2-- --0-- --0-- --0--
D --0-- --2-- --2-- --0-- --2-- --2-- --2-- --0-- --0-- --2--
A --2-- --2-- --3-- --3-- --0-- --0-- --0-- --2-- --2-- --3--
E --3-- --0-- ----- ----- ----- ----- ----- ----- --3-- -----

Am[1] Cmaj9 C(add D) G5(add F#) G/B D
e --0-- --0-- --0-- ----- ----- --2--
B --1-- --1-- --1-- ----- --3-- --3--
G --2-- --0-- --0-- ----- --0-- --2--
D --2-- --0-- --0-- --4-- --0-- --0--
A --0-- --2-- --3-- --5-- --2-- -----
E ----- ----- ----- --3-- ----- -----




Intro with harmonica solo:
3x
|: G Em7 | C :| G Em7 | Csus2 C |
||
/
e ||--3----3--||
B ||--1----1--||
G ||--0----0--||
D ||--0h2--2--||
A ||--3----3--||
E ||----------||

G Em7
When they call your name
C
Will you walk right up
Am7 A7sus2 Am7
With a smile on your face
G Em7
Will you cower in fear
C
In your favorite sweater
A5 A7sus2 Am7
With an old love letter
Am7 Csus2/B C Csus2 C
You know you could
Am7 Csus2/B C (hold)
I wish you would...


G[1]
Come pick me up
C[1]
Take me out
Am[1]
Fuck me up
Cmaj9 C[1] C(add D) C[1]
Steal my records
G[1]
Screw all my friends
C[1]
They're all full of shit
Cmaj9 Am[1]
With a smile on your face
Cmaj9 C[1] C(add D) C[1]
And then do it again
With harmonica
D (hold) |: G Em7 | C :| G Em7 | Csus2 C |
I wish you would...


G Em7
When you're walking downtown
C
Do you with I was there
Am7 A7sus2 Am7
Co wish it was me
G Em7
With the windows all clear
C
and the mannequins eyes
A5 A7sus2 Am7
Do they all look like mine
Am7 Csus2/B C Csus2 C
You know you could
Am7 Csus2/B C (hold)
I wish you would...


G[1]
Come pick me up
C[1]
Take me out
Am[1]
Fuck me up
Cmaj9 C[1] C(add D) C[1]
Steal my records
G[1]
Screw all my friends
C[1]
Behind my back
Cmaj9 Am[1]
With a smile on your face
Cmaj9 C[1] C(add D) C[1]
And then do it again
With harmonica 4x
G5(add F#) |: G Em7 |Csus2 C :|
|| I wish you would...
||
/
G5(add F#)
e ||---------||
B ||------3--||
G ||----0----||
D ||--4------||
A ||--5------||
E ||--3------||



D G/B C C(add D) C
I wish you'd make up my bed
D G/B C C(add D) C
So I could make up my mind
D G/B C C(add D) C
Trying for sleeping instead
D G/B C C(add D) C
Maybe you'll rest sometime

G Em7 C
I wish I could
G Em7 C
I wish I could
G Em7 C
I wish I could

Outro with harmonica:
G Em7 C G


#-----------------------------------------------------------------------------#
www.ryan-adams.org
#-----------------------------------------------------------------------------#