Adams Ryan — La Cienga Just Smiled

La Cienga Just Smiled
Ryan Adams

Capo on 3rd fret

Part I
F G C
|-----------------------------|
|--------------------------1q-|
|------0-2h----0--------------|
|---3r--------0-0----0-2h-----|
|-----------2----3r-----------|
|-----------------------------|
Part II
F G Am G F C
|--------------------------------------|
|---------------1----------------------|
|------0-2h---0-2--0--2r---------------|
|---3r-------0-----0--3r-------0--0-2h-|
|-----------2---0L-----------3q--------|
|------------------3L-1r---------------|

Part III
x y z Am
|----------------------------------------------|
|------------------------------0h1r------------|
|------------------------------2-2r--2p0r------|
|--------------0---------------------2p0r------|
|-----2-----------------0r---------------------|
|----------------------------------------------|
( Such a little girl.........)
All together now
-Verse I-
(Part I)
F G C
Oh the night, Here it comes again
(Part I)
F G C
The song with the jeans, the jacket, and the shirt
(Part II)
F G C
How'd I end up feelin' so bad
(Part III)
x y z Am
Such a little girl

-Verse II-
(Part I)
F G C
And I'll hold you close in the back of my mind
(Part I)
F G C
It feels so good, but damn it makes me hurt
(Part II)
F G Am G F
And I'm scared to know how i feel anymore
(not a part, just chords)
F G C
La Cienega just smiles and says I'll se ya around
(Part I)
-Verse III-
(Part I)
F G C
Now I hold you close in the back of my mind
(Part I)
F G C
I raise my glass cause either way i'm dead
(Part II)
F G Am G F
No one seems to know how you feel anymore
Am G F
How you feel anymore
F G C
La Cienega just smiles and says it takes her more
-Verse IV-
(Part I)
F G C
Spoil the night, here it comes again
(Part I)
F G C
Its off with the jeans, the jacket, and the shirt
(Part I)
F G C
How'd I end up feelin so bad
(Part III)
x y z Am
Such a little girl
-Verse V-
(Part I)
F G C
And i'll hold you close in the back of my mind
(Part I)
F G C
Feels so good, but damn it makes me hurt
(Part II)
F G Am G F
I'm too scared to know how i feel about ya now
Am G F
How i feel about ya now
Am G F
How i feel about ya now
F G C
La Cienega just smiles and says i'll see you around