Adams Ryan — New York New York

На этой странице Вы можете ознакомиться с 7 версиями подбора аккордов для гитары к песне "New York New York" группы (исполнителя) "Adams Ryan".

I had a look through the other version on here and noticed that the
lyrics weren't all correct. Also, I don't use a capo when I play
this song....


New York, New York ? Ryan Adams
Intro: Riff
?......A?....?Dadd9?..........Dadd9?...A ?[Repeat]
A??????????.?Dadd9
Well I shuffled through the city on the 4th of July
Dadd9?????????A
Like a firecracker waiting to blow
A?????????..Dadd9
Breakin? like a rocket who was making
Dadd9????????..A
His way To the cities of Mexico
A??????????Dadd9
Lived in an apartment out on Avenue A
Dadd9??????????.A
I Had a tar-hut on the corner of Tenth
A??????????Dadd9
Had myself a lover who was finer than gold
Dadd9????????.A
But I?ve broken up and busted up since
E?????...A??..?.E????.A
And Love don?t play any games with me Any-
D?????...E/D??D??..E/D
More like she did before???..
E?????.........A????.E??.....?A
World won?t wait so I better shake that
D???????E/D???
Thing right out there through the door
D????.?E/D
Hell I still love you New
(Instrumental)
A??..Dadd9???Dadd9???A
York???
A???????????..Dadd9
Found myself a picture that would fit in the folds
Dadd9???????????A
Of my wallet and it stayed pretty good
A???????????..Dadd9
Still amazed I didn?t lose it on the roof of the
Dadd9???????????????.A
Place when I was drunk and I was thinking of you
A????????????.Dadd9
Every day the children they were singing their tunes
Dadd9???????????????.A
Out on the streets and you could hear from the inside
A???????????..Dadd9
Used to take the subway up to Houston and Third
Dadd9???????????A
I would wait for you and I?d try to hide
E????A????.E???..?.A
And Love won?t play any games with you any-
D???..?.E/D????D??.E/D
More if you don?t want it to?..
E????......?.A???....???E?..?.....??.A
The World won?t wait and I watched you shake but
D????.E/D
Honey I don?t blame you
D????.E/D
Hell, I still love you New
??(Instrumental)
A??.Dadd9??..Dadd9???.A
York??
A??.Dadd9??.Dadd9???.A
??????.?Hell I still Love you New
A??.Dadd9??..Dadd9???A
York??????????.New?
A??.Dadd9??..Dadd9???.A
York????????????.
(Volume Down)
A????????..Dadd9
I remember Christmas in the blistering cold
Dadd9??????..A
In a church on the Upper West Side
A?????.??..Dadd9
Babe, I stood there singing I was holding your arm
Dadd9???????.A
You were holding my trust like a child
A????????.Dadd9
Found a lot of trouble out on Avenue B
Dadd9??????..A
But I tried to keep the overhead low
A???????.Dadd9
Farewell to the city and the love of my life
Dadd9??????A
At least we left before we had to go
E????.?.A?????E????A
And Love won?t play any games with you any
D???.?..E/D?.??..D???.E/D
More if you don?t want ?em to
E????..?..A????.??E????.A
So we better shake this old thing out the door I?ll
D???.??.E/D..????.?.D???..?.E/D
Always be thinking of you I?ll always love you though New
A??..?Dadd9?..??.Dadd9???.A
York?????..I?ll always love though New
A??..?Dadd9?..??.Dadd9???.A
York?????..I?ll always love though New
A??..?Dadd9?..??.Dadd9???.A
York??New York??.New. York
D???.
Sax Solo..
The Part that Goes D To E/D
Goes like this, Play a Normal
D Chord Then, Slide Up 2 Frets
Then Back Down, Then Back Up
?......D?..?E/D??...........?.D?....?E/D
||----2-------4--------|-----2-------4---------|
||----3-------5--------|-----3-------5---------|
||----2-------4--------|-----2-------4---------|
||----0-------0--------|-----0-------0---------|
||----x-------x--------|-----x-------x---------|
||----x-------x--------|-----x-------x---------|
Ryan Adams
New York New York
Tabbed by 4d
Pretty simple and accurate tab to play along to, there?s just 4 chords to learn to play it. The rhythm is
tricky to get, but listen to the track a few hundred times, play along and then you?ve got it.

Chords
A A/D E D
E-----0-----0-----0-----2--------|
B-----2-----3-----0-----3--------|
G-----2-----2-----1-----2--------|
D-----2-----0-----2-----0--------|
A-----0-----0-----2-----x--------|
E-----x-----x-----0-----x--------|

Intro: A and A/D changing (listen to track to see about timing)

Verse 1: A changing to A/D half way through each line

Well, I shuffled through the city on the 4th of July
I had a firecracker waiting to blow
Breakin' like a rocket who was makin' its way
Ro the cities of Mexico
Lived in an apartment out on avenue a
I had a tar hut on the corner of 10th
Had myself a lover who was finer than gold
But I've been broken up and busted up since

Chorus:
E A E A D
And love don't play any games with me, anymore
D
Like she did before
E A E A
The world won't wait, so I better shake
D
That thing right out there through the door
Change back to verse rhythm (A+A/D)
Hell, I still love you, New York

Verse 2: same
Found myself a picture that would fit in the folds
Of my wallet and it stayed pretty good
Still amazed I didn't lose it on the roof of the place
When I was drunk and I was thinking of you
Everyday the children they were singing their tunes
Out on the streets and you could hear from inside
Used to take the subway up to Houston and 3rd
I would wait for you and I'd try to hide

Chorus 2: same rhythm as chorus 1
And love won't play any games with me, anymore
If you don't won't it to
The world won't wait and I watched you shake
But honey, I don't blame you
Hell, I still love you New York

You don?t need to play the saxophone bit at the end, I reckon it ruins it anyway!
4d
hey guys....just thought I'd post how I play this song.  Also I've added the correct lyrics in this post

New York, New York ? Ryan Adams
Intro: Riff
?......A?....?Dadd9?..........Dadd9?...A ?[Repeat]
A??????????.?Dadd9
Well I shuffled through the city on the 4th of July
Dadd9?????????A
Like a firecracker waiting to blow
A?????????..Dadd9
Breakin? like a rocket who was making
Dadd9????????..A
His way To the cities of Mexico
A??????????Dadd9
Lived in an apartment out on Avenue A
Dadd9??????????.A
I Had a tar-hut on the corner of Tenth
A??????????Dadd9
Had myself a lover who was finer than gold
Dadd9????????.A
But I?ve broken up and busted up since
E?????...A??..?.E????.A
And Love don?t play any games with me Any-
D?????...E/D??D??..E/D
More like she did before???..
E?????.........A????.E??.....?A
World won?t wait so I better shake that
D???????E/D???
Thing right out there through the door
D????.?E/D
Hell I still love you New
(Instrumental)
A??..Dadd9???Dadd9???A
York???
A???????????..Dadd9
Found myself a picture that would fit in the folds
Dadd9???????????A
Of my wallet and it stayed pretty good
A???????????..Dadd9
Still amazed I didn?t lose it on the roof of the
Dadd9???????????????.A
Place when I was drunk and I was thinking of you
A????????????.Dadd9
Every day the children they were singing their tunes
Dadd9???????????????.A
Out on the streets and you could hear from the inside
A???????????..Dadd9
Used to take the subway up to Houston and Third
Dadd9???????????A
I would wait for you and I?d try to hide
E????A????.E???..?.A
And Love won?t play any games with you any-
D???..?.E/D????D??.E/D
More if you don?t want it to?..
E????......?.A???....???E?..?.....??.A
The World won?t wait and I watched you shake but
D????.E/D
Honey I don?t blame you
D????.E/D
Hell, I still love you New
??(Instrumental)
A??.Dadd9??..Dadd9???.A
York??
A??.Dadd9??.Dadd9???.A
??????.?Hell I still Love you New
A??.Dadd9??..Dadd9???A
York??????????.New?
A??.Dadd9??..Dadd9???.A
York????????????.
(Volume Down)
A????????..Dadd9
I remember Christmas in the blistering cold
Dadd9??????..A
In a church on the Upper West Side
A?????.??..Dadd9
Babe, I stood there singing I was holding your arm
Dadd9???????.A
You were holding my trust like a child
A????????.Dadd9
Found a lot of trouble out on Avenue B
Dadd9??????..A
But I tried to keep the overhead low
A???????.Dadd9
Farewell to the city and the love of my life
Dadd9??????A
At least we left before we had to go
E????.?.A?????E????A
And Love won?t play any games with you any
D???.?..E/D?.??..D???.E/D
More if you don?t want ?em to
E????..?..A????.??E????.A
So we better shake this old thing out the door I?ll
D???.??.E/D..????.?.D???..?.E/D
Always be thinking of you I?ll always love you though New
A??..?Dadd9?..??.Dadd9???.A
York?????..I?ll always love though New
A??..?Dadd9?..??.Dadd9???.A
York?????..I?ll always love though New
A??..?Dadd9?..??.Dadd9???.A
York??New York??.New. York
D???.
Sax Solo..
The Part that Goes D To E/D
Goes like this, Play a Normal
D Chord Then, Slide Up 2 Frets
Then Back Down, Then Back Up
?......D?..?E/D??...........?.D?....?E/D
||----2-------4--------|-----2-------4-------|
||----3-------5--------|-----3-------5-------|
||----2-------4--------|-----2-------4-------|
||----0-------0--------|-----0-------0-------|
||----x-------x--------|-----x-------x-------|
||----x-------x--------|-----x-------x-------|

Have fun
New York, New York - Ryan Adams

Capo 2nd Fret

I saw this tab and played it but something didn't quite sound right.
Although I've only been playing a year I eventually realized that the
(C) Chord in some instances should have a (G) base. I've changed the
offending Chords and marked them as C/G which should be played as
follows; 3X2013. To play this accurately at pace I found you must hold
down the G chord using your pinky so that the change between the G
and C/G chords are a lot easier. The intro and the bridge between the
chorus and the verses were also slightly out too as the C/G chord
should be utilized here as follows;

Intro/Bridge; | G G C/G C/G | C/G C/G G G | G G C/G C/G | C/G C/G G G |

(G) Well I shuffled through the city (C/G) on the Fourth of July
Had a firecracker waiting to blow (G)
(G) Breaking like a robber (C) who was making his way
To the cities of Mexico (G)
(G) Lived in an apartment out (C/G) on Avenue A
Had a tar on the corner of Tenth (G)
(G) Had myself a lover who was (C) finer than gold
But I been broke I?ve been busted up since (G)

(D) Love don?t play (G) any (D) games with me (G)
Anymore(C) like she did before
(D) World won?t (G) wait so I (D) better shake
That (C) thing right out there through the door
Hell, I still (D) love you New York

Bridge; | G G C/G C/G | C/G C/G G G | G G C/G C/G | C/G C/G G G |

(G) Found myself a picture that would (C/G) fit in the folds
Of my wallet and it stayed pretty good (G)
(G) Still amazed I didn?t lose it out on (C) Lutheran Place
When I was drunk and I was thinking of you (G)
(G) Every day the children they were (C/G) singing the tunes
Out on the streets and you could hear from the side (G)
(G) Used to take the subway out of (C) Houston and Third
I would wait for you and not try to hide (G)

(D) Love won?t (G) play any (D) games with you (G)
Anymore (C) if you don?t want her to
(D) World won?t (G) wait I (D) watched you shake (G)
But (C) honey I don?t blame you
Hell, I still (D) love you New York

Bridge; | G G C/G C/G | C/G C/G G G | G G C/G C/G | C/G C/G G G |

(G) I remember Christmas (C/G) in the blistering cold
In a church on the Upper West Side (G)
(G) Babe, you stood there singing I was (C) holding you arm
You were holding my trust like a child (G)
(G) Found a lot of trouble out on (C/G) Avenue B
But I tried to keep the overhead low (G)
(G) Farewell to the city and the (C) love of my life
As we left before we had to go (G)

(D) Love won?t (G) play any (D) games with you (G)
Anymore (C) if you don?t want her to
(D) Sweep and (G) shake this old (D) thing out the (G) door
I?ll (C) always be thinking of you
I?ll always (D) love you though New York

Ending; | G G C/G C/G | C/G C/G G G | X4 to fade
(the last few G chords should be Gsus, played as 3X0013).

Thanks to the person who posted the original copy and I hope my modest
alterations help make this wonderful song sound even more enjoyable
to play.

Aron Radford (UK)
#----------------------------------PLEASE NOTE--------------------------------#
#This file is the author's own work and represents their interpretation of the#
#song. You may only use this file for private study, scholarship, or research.#
#-----------------------------------------------------------------------------#

Title : New York, New York
Artist : Ryan Adams
Album : Gold

Transcribed by : Ferry Falkenburg (ferry@ryan-adams.org)

Notes : -
#-----------------------------------------------------------------------------#

Ryan Adams - New York, New York
-------------------------------

Standard tuning.

Chords used (acoustic guitar):
A D/A E Dsus2 E7/D
e ----- ----- --0-- --0-- --0--
B --2-- --3-- --0-- --3-- --3--
G --2-- --2-- --1-- --2-- --1--
D --2-- --4-- --2-- --0-- --0--
A --0-- --0-- --2-- ----- -----
E ----- ----- --0-- ----- -----

Chords used (electric guitar):
A5 D5 E5
e ----- ----- -----
B ----- ----- -----
G ----- --7-- --9--
D --7-- --7-- --9--
A --7-- --5-- --7--
E --5-- ----- -----


Acoustic guitar:
A D/A A D/A A A D/A A D/A A
e||-------------------------------------|-------------------------------------|
B||-2-2-2-2h3-3-3-3-3-2h3-3-3-3-2-2-2-2-|-2-2-2-2h3-3-3-3-3-2h3-3-3-3-2-2-2-2-|
G||-2-2-2-2---2-2-2-2-2---2-2-2-2-2-2-2-|-2-2-2-2---2-2-2-2-2---2-2-2-2-2-2-2-|
D||-2-2-2-2h4-4-4-4-4-2h4-4-4-4-2-2-2-2-|-2-2-2-2h4-4-4-4-4-2h4-4-4-4-2-2-2-2-|
A||-0-0-0-0---0-0-0-0-0---0-0-0-0-0-0-0-|-0-0-0-0---0-0-0-0-0---0-0-0-0-0-0-0-|
E||-------------------------------------|-------------------------------------|
|| |
||Electric guitar: |
|| A |
e||-------------------------------------|-------------------------------------|
B||-------------------------------------|-------------------------------------|
G||-------------------------------------|-0h2---------------------------------|
D||-------------------------------------|-2-----------------------------------|
A||-------------------------------------|-0-----------------------------------|
E||-------------------------------------|-------------------------------------|


A D/A A D/A A A D/A A D/A A
e||-------------------------------------|-------------------------------------|
B||-2-2-2-2h3-3-3-3-3-2h3-3-3-3-2-2-2-2-|-2-2-2-2h3-3-3-3-3-2h3-3-3-3-2-2-2-2-|
G||-2-2-2-2---2-2-2-2-2---2-2-2-2-2-2-2-|-2-2-2-2---2-2-2-2-2---2-2-2-2-2-2-2-|
D||-2-2-2-2h4-4-4-4-4-2h4-4-4-4-2-2-2-2-|-2-2-2-2h4-4-4-4-4-2h4-4-4-4-2-2-2-2-|
A||-0-0-0-0---0-0-0-0-0---0-0-0-0-0-0-0-|-0-0-0-0---0-0-0-0-0---0-0-0-0-0-0-0-|
E||-------------------------------------|-------------------------------------|
|| |
|| A |
e||-------------------------------------|-------------------------------------|
B||-------------------------------------|-------------------------------------|
G||-------------------------------------|-0h2---------------------------------|
D||-------------------------------------|-2-----------------------------------|
A||-------------------------------------|-0-----------------------------------|
E||-------------------------------------|-------------------------------------|


A D/A A D/A A A D/A A D/A A
e||-------------------------------------|-------------------------------------||
B||-2-2-2-2h3-3-3-3-3-2h3-3-3-3-2-2-2-2-|-2-2-2-2h3-3-3-3-3-2h3-3-3-3-2-2-2-2-||
G||-2-2-2-2---2-2-2-2-2---2-2-2-2-2-2-2-|-2-2-2-2---2-2-2-2-2---2-2-2-2-2-2-2-||
D||-2-2-2-2h4-4-4-4-4-2h4-4-4-4-2-2-2-2-|-2-2-2-2h4-4-4-4-4-2h4-4-4-4-2-2-2-2-||
A||-0-0-0-0---0-0-0-0-0---0-0-0-0-0-0-0-|-0-0-0-0---0-0-0-0-0---0-0-0-0-0-0-0-||
E||-------------------------------------|-------------------------------------||
|| ||
|| A5 D5 D5 A5 A5 D5 D5 A5 ||
e||-------------------------------------|-------------------------------------||
B||-------------------------------------|-------------------------------------||
G||-----------7-----------7---7---------|------------7-----------7---7--------||
D||-7---7-----7-----------7---7-7-------|--7---7-----7-----------7---7-7------||
A||-7---7-----5-----------5---5-7-------|--7---7-----5-----------5---5-7------||
E||-5---5-----------------------5-------|--5---5-----------------------5------||



RIFF 1 (Acoustic guitar during verses):
A D/A A D/A A A D/A A D/A A
e||-------------------------------------|-------------------------------------||
B||-2-2-2-2h3-3-3-3-3-2h3-3-3-3-2-2-2-2-|-2-2-2-2h3-3-3-3-3-2h3-3-3-3-2-2-2-2-||
G||-2-2-2-2---2-2-2-2-2---2-2-2-2-2-2-2-|-2-2-2-2---2-2-2-2-2---2-2-2-2-2-2-2-||
D||-2-2-2-2h4-4-4-4-4-2h4-4-4-4-2-2-2-2-|-2-2-2-2h4-4-4-4-4-2h4-4-4-4-2-2-2-2-||
A||-0-0-0-0---0-0-0-0-0---0-0-0-0-0-0-0-|-0-0-0-0---0-0-0-0-0---0-0-0-0-0-0-0-||
E||-------------------------------------|-------------------------------------||


RIFF 2 (Electric guitar):
e||--5--4-4-4--||
B||------------||
G||------------||
D||------------||
A||------------||
E||------------||


RIFF 1:
A D/A
Well I shuffled through the city on the Fourth of July
A
Had a firecracker waiting to blow
A D/A
Breaking like a robber who was making his way
A
To the cities of Mexico
A D/A
Lived in an apartment out on Avenue A
A
Had a tar on the corner of Tenth
A D/A
Had myself a lover who was finer than gold
A
But I been broke I've been busted up since


E5 A5 E5 A5
New York, New York
Ryan Adams

(Progression one)
Intro, verse and invert:

A Dsus9 D A

|-x-x-----x-x-----|-x-x-----x-------|
|-0h2-----2h3-----|-2h3-----2-------|
|-0h2-----2-2-----|-2-2-----2-------|
|-0h2-----2-2-----|-2h4-----2-------|
|-0-0-----0-0-----|-0-0-----0-------|
|-x-x-----x-x-----|-x-x-----x-------|

(Progression two)
Chorus:

E A Dsus Ddim (h) Dsus Ddim

|-x-------x-------|-x-------x-------|-x-------x-------|
|-0-------2-------|-3-------3-------|-3-------3-------|
|-1-------2-------|-2-------1-------|-2-------1-------|
|-2-------2-------|-0-------0-------|-0-------0-------|
|-2-------0-------|-0-------0-------|-0-------0-------|
|-0-------x-------|-x-------x-------|-x-------x-------|

E A Dsus Ddim (h) Dsus E7

|-x-------x-------|-x-------x-------|-x-------x-------|
|-0-------2-------|-3-------3-------|-3-------3-------|
|-1-------2-------|-2-------1-------|-2-------1-------|
|-2-------2-------|-0-------0-------|-0-------2-------|
|-2-------0-------|-0-------0-------|-0-------2-------|
|-0-------x-------|-x-------x-------|-x-------0-------|


Lyrics and song progression:

INTRO:
(Play progression one twise)

VERSE: (Play progression one throughout)
Well I shuffled through the city on the Fourth of July
Had a firecracker waiting to blow
Breaking like a robber who was making his way
To the cities of Mexico
Lived in an apartment out on Avenue A
Had a tar on the corner of Tenth
Had myself a lover who was finer than gold
But I been broke I?ve been busted up since

CHORUS: (Play progression two once)
Love don?t play any games with me
Anymore like she did before
World won?t wait so I better shake
That thing right out there through the door
Hell, I still love you New York

INVERT:
(Play progression one twise)

VERSE: (Play progression one throughout)
Found myself a picture that would fit in the folds
Of my wallet and it stayed pretty good
Still amazed I didn?t lose it out on Lutheran Place
When I was drunk and I was thinking of you
Every day the children they were singing the tunes
Out on the streets and you could hear from the side
Used to take the subway out of Houston and Third
I would wait for you and not try to hide

CHORUS: (Play progression two once)
Love won?t play any games with you
Anymore if you don?t want her to
World won?t wait I watched you shake
But honey I don?t blame you
Hell, I still love you New York

INVERT:
(Play progression one twise)

VERSE: (Play progression one throughout)
I remember Christmas in the blistering cold
In a church on the Upper West Side
Babe, you stood there singing I was holding you arm
You were holding my trust like a child
Found a lot of trouble out on Avenue B
But I tried to keep the overhead low
Farewell to the city and the love of my life
As we left before we had to go

CHORUS: (Play progression two once)
Love won?t play any games with you
Anymore if you don?t want her to
Sweep and shake this old thing out the door
I?ll always be thinking of you
I?ll always love you though New York

End on A

Enjoy,
Nick - (waltonhealey@hotmail.com)
New York, New York - Ryan Adams
D.H. Dilbeck email me if you find more ryan adams at
dancingmonkey999@hotmail.com
Close enough - corrections encouraged


4/4 time (four dashes = 1 beat, each bar has extra dash at start for
readability)

Strum freely (and a lot)

THE FIRST PART:
Verse (hammer on's here and there)

A Dsus9 D A
, . , . , . , . , . , . , . , .
||-x-x-----x-x-----|-x-x-----x-------||
||-0h2-----2h3-----|-2h3-----2-------||
||-0h2-----2-2-----|-2-2-----2-------||
||-0h2-----2-2-----|-2h4-----2-------||
||-0-0-----0-0-----|-0-0-----0-------||
||-x-x-----x-x-----|-x-x-----x-------||


THE NEXT PART:
Repeat first bar twice (like it says)

E A Dsus Ddim Dsus Ddim
, . , . , . , . , . , . , . , . , . , . , . , .
||-x-------x-------||-x-------x-------|-x-------x-------|
||-0-------2-------||-3-------3-------|-3-------3-------|
||-1-------2-------||-2-------1------h|-2-------1-------|
||-2-------2-------||-0-------0-------|-0-------0-------|
||-2-------0-------||-0-------0-------|-0-------0-------|
||-0-------x-------||-x-------x-------|-x-------x-------|

E A Dsus Ddim Dsus E7
, . , . , . , . , . , . , . , . , . , . , . , .
||-x-------x-------||-x-------x-------|-x-------x-------|
||-0-------2-------||-3-------3-------|-3-------3-------|
||-1-------2-------||-2-------1------h|-2-------1-------|
||-2-------2-------||-0-------0-------|-0-------2-------|
||-2-------0-------||-0-------0-------|-0-------2-------|
||-0-------x-------||-x-------x-------|-x-------0-------|


THE END PART:
Ending (combination of D,A,E,G) Asus7-11? resloves to A at end
Bass is mainly D and A

Try one of these:

|-3-| |-5-| |-5-| |-3-| |-5-|
|-3-| |-5-| |-8-| |-3-| |-8-|
|-2-| |-7-| |-7-| |-2-| |-7-|
|-2-| |-5-| |-5-| |-0-| |-5-|
|-0-| |-5-| |-5-| |-0-| |-7-|
|-x-| |-5-| |-5-| |-x-| |-5-|

I like this one - stick in a hammer once in a while to relieve ennui
Plain A at the end

A? A? A7 A
||---5-||---5--5--5-|
||---5-||---5--5--5-|
||-6h7-||-6h7--6--6-|
||---5-||---5--5--7-|
||---7-||---7--7--7-|
||---5-||---5--5--5-|