Adema — Blow It Away

На этой странице Вы можете ознакомиться с 2 версиями подбора аккордов для гитары к песне "Blow It Away" группы (исполнителя) "Adema".

This is the intro/chorus to blow it away
Db)--6^7777777-10-10-10-10-5555^44444412-12-12-12/888--|
Ab)--6-7777777-10-10-10-10-5555-44444412-12-12-12/888--|
Db)--6-7777777-10-10-10-10-5555-44444412-12-12-12/888--|
Gb)----------------------------------------------------|
Bb)----------------------------------------------------|
Eb)----------------------------------------------------|

2nd part
Db)6^7777777/10-10-10-10-5555^444444-000--|
Ab)6-7777777/10-10-10-10-5555-444444-000--|
Db)6-7777777/10-10-10-10-5555-444444-000--|
Gb)---------------------------------------|
Bb)---------------------------------------|
Eb)---------------------------------------|


Verse
This is the bass for the verse as if played on an electric guitar

Bb)--------------------------3333^222222-----------------|
Db)--6^7777777---10-10-10-10-------------12-12-12-12-888-|
Ab)------------------------------------------------------|
Db)------------------------------------------------------|
Gb)------------------------------------------------------|

Bb)--------------------------3333^222222-7777------------|
Db)--6^7777777---10-10-10-10-----------------------------|
Ab)------------------------------------------------------|
Db)------------------------------------------------------|
Gb)------------------------------------------------------|

End of verse
Db)12-12-12-12-888--|
Ab)12-12-12-12-888--|
Db)12-12-12-12-888--|

Interlude
P.M.--|
Db)--6^777-5^444-5-22223333-1-1--1-1-0-----------------|
Ab)--6-777-5-444-5-22223333-1-1--1-1-0-----------------|
Db)--6-777-5-444-5-22223333-1-1--1-1-0-----------------|
Gb)----------------------------------------------------|
Bb)----------------------------------------------------|
Eb)----------------------------------------------------|

End of interlude
P.M.--|
Db)--2^3-3-0---------------------|
Ab)--2-3-3-0---------------------|
Db)----------1-2-3---------------|
Gb)------------------------------|
Bb)------------------------------|
Eb)------------------------------|

Order

Intro part 1
Intro part 2
Verse
End of verse
Chorus part 1
Chorus part 2
Verse
End of verse
Both choruses x 2
Interlude
End of interlude
Both choruses x4

the interlude and the verse aren't 100% correct, But I tried.
It ends right here for this tab
And That’s as far as I got
Band:  Adema
Song: Blow It Away
Tabber: Jimmy Fats 69
Tuning: Standard 5-string (B,E,A,D,G)

It?s a pretty easy song. Listen for the timing.

Intro (00:01)
G|---
D|---
A|--- A faint note that is barely heard at the beginning of the song
E|1--
B|---

Intro/Verse/Chorus (00:05)
G|-----------------------------------------------------------------|
D|-----------------------------------------------------------------|
A|-----------------------------------------------------------------|
E|-----------------7-7-7-7------------------------9-9-9-9----------|
B|7/9-9-9-9-9-9-9----------7-7-7-7-6-6-6-6-6-6-6----------10-10-10-|

G|--------------------------------------------------------------|
D|--------------------------------------------------------------|
A|--------------------------------------------------------------|
E|-----------------7-7-7-7--------------------------------------|
B|7/9-9-9-9-9-9-9----------7-7-7-7-6-6-6-6-6-6-6-2-2-1-2-------|

Bridge Pt. 1 (1:45)
G|-------------------------------------------------------|
D|-------------------------------------------------------|x2
A|-------------------------------------------------------|
E|2/4-4-4-4-3-3-3----------------------------------------|
B|-----------------4-4-4-5-5-5-5--2-2-2-3-3-3-3--3--3--3-|

Bridge Pt. 2 (1:55)
G|-------------------------------------|
D|-------------------------------------|
A|-------------------------------------|x1
E|4-4----------------------------------|
B|-------------------5-5-------2-2---4-|

G|-----------------------------------------|
D|-----------------------------------------| X2
A|-----------------------------------------|
E|4-4-----4-3-------------/7-7-7-7-5-7-5-5-|
B|------------4------5-5-------------------|

G|-----------------------------|
D|-----------------------------|
A|-----------------------------|x1
E|4-4-----4-3--------------4---|
B|------------4------5--4------|

Chorus (2:15) x3
G|-----------------------------------------------------------------|
D|-----------------------------------------------------------------|
A|-----------------------------------------------------------------|
E|-----------------7-7-7-7------------------------9-9-9-9----------|
B|7/9-9-9-9-9-9-9----------7-7-7-7-6-6-6-6-6-6-6----------10-10-10-|

G|--------------------------------------------------------------|
D|--------------------------------------------------------------|
A|--------------------------------------------------------------|
E|-----------------7-7-7-7--------------------------------------|
B|7/9-9-9-9-9-9-9----------7-7-7-7-6-6-6-6-6-6-6-2-2-1-2-------|

Outro (2:45) x1
G|------------------------------------------------------------------|
D|------------------------------------------------------------------|
A|------------------------------------------------------------------|
E|-----------------7-7-7-7------------------------9-9-9-9-----------|
B|7/9-9-9-9-9-9-9----------7-7-7-7-6-6-6-6-6-6-6----------10-10-10--|

G|----------------------------------|
D|----------------------------------|
A|----------------------------------|
E|4--4--4--4--4--3----------------4-|
B|------------------4--4--5---4-----|

Comments, Questions, Mistakes: MADdog9997@aol.com