Adema — Giving In

На этой странице Вы можете ознакомиться с 8 версиями подбора аккордов для гитары к песне "Giving In" группы (исполнителя) "Adema".

------------------------------------------------------------
Adema Giving in
------------------------------------------------------------

By:Paul_1988@hotmail.com

Im not so sure about the solo but i will work it out and send it in.

Intro
e|--4-4-4-4-4-4---4-4-4-4-4-4-----|
B|-5-5-----------4-4--------------|
G|--------------------------------|x6
D|--------------------------------|
A|--------------------------------|
E|--------------------------------|

Verse
e|-----------------------------------------------------|
B|-----------------------------------------------------|
G|-----------------------------------------------------|x?
D|-66---8h9p8-99---------11-11---------11-11-----------|
A|-66---------99---6h9p6-11-11---6h7p6-11-11-----------|
E|-44---------77---------9--9-----------9--9---6h7p6---|
THIS TAB IS NEAR ENOUGH 100% CORRECT, IM NOT SURE ABOUT THE VERSE THOUGH BUT ITS CLOSE

INTRO

E-------------------------------------------
B---10--10-10-10-10-10---10-10-10-10-10-10--
G-10--10----------------9--9----------------
D-------------------------------------------
A-------------------------------------------
E-------------------------------------------

Heavy Part

E-------------------------------------------------
B-------------------------------------------------
G------5-6-5------3-5-3-------3-4-3---------------
D-8-8---------4-4--------1-1--------1-1--3-4-3----
A-8-8---------4-4--------1-1--------1-1-----------
E-8-8---------4-4--------1-1--------1-1-----------


CHORUS( Quiet so you can hardly hear it)
E---6--6-6-6-6-6--6--6-6-6-6-6--------------
B--6-6-----------5-5------------------------
G-------------------------------------------
D-------------------------------------------
A-------------------------------------------
E-------------------------------------------

VERSE
E--------------------------------------------------
B--------------------------------------------------
G--------------------------------------------------
D--8-8--11-11----1-1--8-8----3-3--5-5----2-2--7-7--
A--8-8--11-11----1-1--8-8----3-3--5-5----2-2--7-7--
E--8-8--11-11----1-1--8-8----3-3--5-5----2-2--7-7--

SOLO

E-------------------------------------------------------
B----------------------------------------------------11--
G---------------11--------------------------------------
D--------11--13----11-13---11-13-11---------11-13-13-------
A-13--13-----------------------------13--13--------------
E--------------------------------------------------------

E------------------------------------------------------
B------------------------------------------------------
G----------------------------------11--------------------
D-11--13---11-13-11-------11-13-11----11-13--11-13-11--
A-------------------11-11-----------------------------13--
E-------------------------------------------------

E----------------------------------------------------
B--------------11------------------------------------
G----------------------------------------------------
D-----11-13-11----11-13--11-13-11--10-9-10-----------
A--13----------------------------------------13------
E----------------------------------------------------

BIT AFTER SOLO WHERE IT GOES QUIET THEN HE SCREAMS

E-----------------------------------------------
B-----------------------------------------------
G-----------------------------------------------
D---7-7-----3-3----2-2----1-1--4-4--------------
A---7-7-----3-3----2-2----1-1--4-4--------------
E---7-7-----3-3----2-2----1-1--4-4--------------

FINISH ON
E---------------
B---------------
G---------------
D--7------------
A--7------------
E--7------------



ORDER

INTRO
HEAVY PART
CHORUS
VERSE
HEAVY PART
CHORUS
VERSE
SOLO
BIT AFTER SOLO
HEAVY PART

IF YOU NEED ANY OTHER ADEMA SONGS TABBED EMAIL ME AT
RageAgainstLP@aol.com
Song:  Giving In
Band: Adema
Tabbed by: Mudvayne4ever

I have not seen many tabs of this song so I am tabbing this song.
I am pretty sure this is correct, I am not sure about the Chorus.
The bassist of Adema plays a 5-string but in this song I don’t hear in used much,
only in one part of the song.

Standard tuning I think

INTRO you can hear this when the drums kick in.

G |--------------------------------------------|
D |--------------------------------------------|
A |-------2--------0--------------------------|
E |---4----------------------------------------|
B |--------------------------------------------|

VERSE/PRE-VERSE

G |--------------------------------------------------------|
D |--------------------------------------------------------|
A |--------------------------------------------------------|
E |------4-4-------7-7-------9-9------9-9--------------|
B |--------------------------------------------------------|

CHORUS

G |------------------------------------------------------------------|
D |------------------------------------------------------------------|
A |----------------------------------------9--9--9--9--9----------|
E |----6--6-6----9--9-9----11-11-11----------------------------|
B |------------------------------------------------------------------|

During the solo play the Verse/Pre-verse.

BRAKDOWN (talking…”I look forward…”)

G |--------------------------------------------------------|
D |--------------------------------------------------------|
A |---------------------------------------------------------|
E |---------------------------------------------------------|
B |----0*--------4*--------2*-------0*------------------|

That’s how I play it in my band and it sounds right.


=========


Adema - Giving In
Tabbed By: Jimm Raymer
E-mail: WetWillie540@aol.com

Intro-let guitar play for the first 2 times join on the third…start
playing softly, then play hard

G---------------------------------------------------------------------------------------
D---------------------------------------------------------------------------------------
A--------------------------------------------------------------------2-2-2-2-2-2-2-2
E-3-3-3-3-3-3-3-3-5-5-5-5-5-5-5-5---6-6-6-6-6-6-6-6---------------------

Fill-In-play heavy…keep playing over and over again till he starts singing---Pause after 1-1

G---------------------------------------------------------------------------------------
D---------------------------------------------------------------------------------------
A---------------------------------------------------------------------------------------
E---3-3----4-4----1-1----1-1--------------------------------------------------------

Verse---repeat until the song goes into the chorus (only play the 2-3-2 on the A string the
second time you repeat)

G---------------------------------------------------------------------------------------
D---------------------------------------------------------------------------------------
A--------------------------------2-3-2------------------------------------------------
E---3-3---1-1---4-4---0-0-----------------------------------------------------------

Chorus---repeat until song goes back into verse

G----------------------------------------------------------------------------------------------
D----------------------------------------------------------------------------------------------
A----------------------------------------------------------------------------------------------
E---3---3-3-3-3-3-3-3---5---5-5-5-5-5-5-5---7---7-7-7-7-7-7-7---9-9-9-9-9-9-9-9-

Fill-In---play till song goes back into verse---pause after 1-1

G---------------------------------------------------------------------------------------
D---------------------------------------------------------------------------------------
A---------------------------------------------------------------------------------------
E---3-3----4-4----1-1----1-1--------------------------------------------------------

Verse---repeat until the song goes into the chorus
(only play the 2-3-2 on the A string the second time you repeat)

G---------------------------------------------------------------------------------------
D---------------------------------------------------------------------------------------
A--------------------------------2-3-2------------------------------------------------
E---3-3---1-1---4-4---0-0-----------------------------------------------------------

Chorus---repeat until song goes into guitar solo

G----------------------------------------------------------------------------------------------
D----------------------------------------------------------------------------------------------
A----------------------------------------------------------------------------------------------
E---3---3-3-3-3-3-3-3---5---5-5-5-5-5-5-5---7---7-7-7-7-7-7-7---9-9-9-9-9-9-9-9-

Verse---play while the guitar is playing solo

G---------------------------------------------------------------------------------------
D---------------------------------------------------------------------------------------
A--------------------------------2-3-2------------------------------------------------
E---3-3---1-1---4-4---0-0-----------------------------------------------------------

Fill-In 2---starts after solo, when it gets soft, but it is building up to a heavy part

G------------------------------------------------------------------------------------------------------
D------------------------------------------------------------------------------------------------------
A------------------------------------------------------------------------------------------------------
E---3------------------------4-----2---1---------------3-------------4-----2---1---1-1-1-1-1-1-1

G------------------------------------------------------------------------------------------------------
D------------------------------------------------------------------------------------------------------
A------------------------------------------------------------------------------------------------------
E---3-3-3-3-3-3-3-3---5-5-5-5-5-5-5-5---7-7-7-7-7-7-7-7------------------------------------

Fill-In---it's the heaviest part of the song so in order to make it sound heavier, hammer/slap these notes

G---------------------------------------------------------------------------------------
D---------------------------------------------------------------------------------------
A---------------------------------------------------------------------------------------
E---3-3----4-4----1-1----1-1--------------------------------------------------------

Chorus---repeat til song ends, let fade out

G----------------------------------------------------------------------------------------------
D----------------------------------------------------------------------------------------------
A----------------------------------------------------------------------------------------------
E---3---3-3-3-3-3-3-3---5---5-5-5-5-5-5-5---7---7-7-7-7-7-7-7---9-9-9-9-9-9-9-9-
ADEMA - Giving In
Tabbed by Dave Brown

GTR1 Volume Swell W/ Wah towards the end |
e|-----------------------------------------|
B|-----------------------------------------|
G|-13-13-13-13-13-13-13-13-13-13-13-13 etc-|
D|-----------------------------------------|
A|-----------------------------------------|
E|-----------------------------------------|
|GTR2 x2 |
e|-----------------------------------------|
B|-----------------------------------------|
G|-----------------------------------------|
D|-14-14--13-13--14-14--13-13--14-14--13-13|
A|-----------------------------------------|
E|-----------------------------------------|

Pre verse - GTR1 x4
e|---------------------------------------------------------------------------|
B|---------------------------------------------------------------------------|
G|---------------------------------------------------------------------------|
D|6-6-6-6-6-6-6-6-6-9-9-9-9-9-9-9-9-11-11-11-11-11-11-11-11-9-9-9-9-9-9-9-9--|
A|6-6-6-6-6-6-6-6-6-9-9-9-9-9-9-9-9-11-11-11-11-11-11-11-11-9-9-9-9-9-9-9-9--|
E|4-4-4-4-4-4-4-4-4-7-7-7-7-7-7-7-7--9--9--9--9--9--9--9--9-7-7-7-7-7-7-7-7--|
| |
|Pre verse - GTR2 x4 |
e|---------------------------------------------------------------------------|
B|---------------------------------------------------------------------------|
G|---------------------------------------------------------------------------|
D|6--6--8---9---8---9--9--6---8---6-11--11------------------9--9-------------|
A|6--6--------------9--9------------11--11--4---6---7---6---9--9--6--7--6----|
E|4--4--------------7--7-------------9---9------------------7--7----------7--|

GTR2 rest

Verse GTR1 As before volume swells at end
e|----------------------------------------|
B|----------------------------------------|
G|-13-13-13-13-13-13-13-13-13-13-13-13 etc|
D|----------------------------------------|
A|----------------------------------------|
E|----------------------------------------|

Chorus GTR1
e|----------------------------------------|
B|----------------------------------------|
G|-13---11/10-10/9--9/8--6/11-------------|
D|----------------------------------------|
A|----------------------------------------|
E|----------------------------------------|
| |
|Chorus GTR2 |
e|----------------------------------------|
B|----------------------------------------|
G|----------------------------------------|
D|----------------------------------------|
A|-11---9/-8--8/-7--7/6--49~~------------|
E|----------------------------------------|

GTR2 rest

Verse GTR1 As before volume swells
e|----------------------------------------|
B|----------------------------------------|
G|-13-13-13-13-13-13-13-13-13-13-13-13 etc|
D|----------------------------------------|
A|----------------------------------------|
E|----------------------------------------|

Chorus GTR1 Trem Pick
e|----------------------------------------|
B|----------------------------------------|
G|-13---11/10-10/9--9/8--6/11-------------|
D|----------------------------------------|
A|----------------------------------------|
E|----------------------------------------|
|
|Chorus GTR2
e|----------------------------------------|
B|----------------------------------------|
G|----------------------------------------|
D|----------------------------------------|
A|-11---9/-8--8/-7--7/6--49~~------------|
E|----------------------------------------|

Solo GTR1
e|---------------------------4------------|
B|------4---------------------------------|
G|4-6-4---6-4-4-6-4----4-6-4---6-4-3-4-3--| I'm sure you can manage
D|------------------6--------------------6| to pick every note can't you?
A|----------------------------------------|
E|----------------------------------------|

W/Feedback
e|---------------------------4----------------------|
B|------4-------------------------------------------|
G|4-6-4---6-4-4-6-4----4-6-4---6-4-3-4-3------------| Yes here too
D|------------------6--------------------6~~~~~~~~~~|
A|--------------------------------------------------|
E|--------------------------------------------------|
| |
|Solo GTR2 |
e|----------------------------------------|
B|----------------------------------------|
G|----------------------------------------|
D|-6-6-6-6-9-9-9-9-11-11-11-11-14-14-12-12|
A|-6-6-6-6-9-9-9-9-11-11-11-11-14-14-12-12|
E|-4-4-4-4-7-7-7-7--9--9--9--9-12-12-10-10|

GTR2 Around 3:15 x4
e|---------------------|
B|---------------------|
G|---------------------| Don't play brackets
D|-9-9--7-7--5-5--(4-4)| the 4th time
A|-9-9--7-7--5-5--(4-4)|
E|-7-7--5-5--3-3--(2-2)|

Chorus GTR1
e|---4--2--0----------|
B|------------4--2/7--|
G|--------------------|
D|--------------------|
A|--------------------|
E|--------------------|
| |
|Chorus GTR2 |
e|----------------------------------------|
B|----------------------------------------|
G|----------------------------------------|
D|----------------------------------------|
A|-11---9/-8--8/-7--7/6--49~~------------|
E|----------------------------------------|

GTR1 Outro
e|-----------------------------------------|
B|-----------------------------------------|
G|-13-13-13-13-13-13-13-13-13-13-13-13 etc-|
D|-----------------------------------------|
A|-----------------------------------------|
E|-----------------------------------------|
|GTR2 Outro | ETC
e|-----------------------------------------|
B|-----------------------------------------|
G|-----------------------------------------|
D|-14-14--13-13--14-14--13-13--14-14--13-13|
A|-----------------------------------------|
E|-----------------------------------------|

P.S If you don't know what trem picking is tough shit
i'm not gonna tell you. Enjoy.
Giving In-Adema
Adema

Drop Db
Db Ab Db Gb Bb Eb

Riff A w/ delay and wah

e-------------------------------------------------
b----10----10-10-10-10-10---10---10-10-10-10-10---
g-10----10----------------9----9------------------
d-------------------------------------------------
a-------------------------------------------------
d-------------------------------------------------

0:19

Fig 1. gtr 1

e-----------------------------------------------------------------
b-----------------------------------------------------------------
g-----------------5-5-5-5-5-5-5-5-7-7-7-7-7-7-7-7-7-7-7-7-7-7-7-7-
d-7-7-7-7-7-7-7-7-x-x-x-x-x-x-x-x-x-x-x-x-x-x-x-x-x-x-x-x-x-x-x-x-
a-0-0-0-0-0-0-0-0-3-3-3-3-3-3-3-3-5-5-5-5-5-5-5-5-5-5-5-5-5-5-5-5-
d---------------------------------0-0-0-0-0-0-0-0-0-0-0-0-0-0-0-0-

Fig 1a. gtr 2. w/ ocatver, down 1 oct.

e-----------------------------------------------------------------
b-----------------------------------------------------------------
g-----------------------------------------------------------------
d-------------------------------------2-2h3p2---------------------
a-----0-2h3p2---------0-0h2p0-------------------------2 2h3-2h3---
d-----------------------------------------------------------------

Fig 1. cont

e-----------------------------------------------------------------
b-----------------------------------------------------------------
g-----------------5-5-5-5-5-5-5-5-7-7-7-7-7-7-7-7-----------------
d-7-7-7-7-7-7-7-7-x-x-x-x-x-x-x-x-x-x-x-x-x-x-x-x-3-3-3-3-2-2-2-2-
a-0-0-0-0-0-0-0-0-3-3-3-3-3-3-3-3-5-5-5-5-5-5-5-5-x-x-x-x-x-x-x-x-
d-------------------------------------------------3-3-3-3-2-2-2-2-

Fig 1a. cont

e-----------------------------------------------------------------
b-----------------------------------------------------------------
g-----------------------------------------------------------------
d-------------------------------------2-2h3p2---------------------
a-----0-2h3p2---------0-0h2p0-------------------------2 2h3-2h3---
d-----------------------------------------------------------------

Verses: Bass arr for gtr

g-----------------------------------------------------------------
d-----------------------------------------------------------------
a-----------------------------------------------------------------
d-7-7--7----------3-3--3----------8-8--8----------2-2--2----------

Chorus:

e-----------------------------------------------------------------
b-----------------------------------------------------------------
g-----------5-5-5-5-5-5-5--7-7-7-7-7-7-7--12-12-12-12-12-12-12-12-
d-7-7--7-7--x-x-x-x-x-x-x--x-x-x-x-x-x-x--x--x--x--x--x--x--x--x--
a-0-0--0-0--3-3-3-3-3-3-3--5-5-5-5-5-5-5--10-10-10-10-10-10-10-10-
d-----------------------------------------0--0--0--0--0--0--0--0--

e-----------------------------------------------------------------
b-----------------------------------------------------------------
g-----------5-5-5-5-5-5-5--7-7-7-7-7-7-7--------------------------
d-7-7--7-7--x-x-x-x-x-x-x--x-x-x-x-x-x-x--5-5-5-5-5-5-5-5-5-5-5-5-
a-0-0--0-0--3-3-3-3-3-3-3--5-5-5-5-5-5-5--5-5-5-5-5-5-5-5-5-5-5-5-
d-----------------------------------------5-5-5-5-5-5-5-5-5-5-5-5-

Solo: w/ wah and delay

e-----------------------------------------------------------------
b-----------------------------------------10----------------------
g------5-7-5-7/9---7-5-5-7-5--------5-7-5-----7-5-4--5-4----------
d----------------------------7---5-----------------------7--------
a--x-0------------------------------------------------------------
d-----------------------------------------------------------------

e-----------------------------------------------------------------
b-----------------------------------------10----------------------
g------5-7-5-7/9---7-5-5-7-5--------5-7-5-----7-5-4--5-4----------
d----------------------------7---5--------------------------------
a-----------------------------------------------------------------
d-----------------------------------------------------------------

Bridge:

e-----------------------------------------------------------------
b-----------------------------------------------------------------
g-----------------------------------------------------------------
d-----------------------------------------------------------------
a-0-0-0-0-0-0-0-0-------------------------------------------------
d-----------------3-3-3-3-3-3-3-3-2-2-2-2-2-2-2-2-1-1-1-1-1-1-1-1-

...take me, under...

e--------7h8-7~~-------5-5h7-5~~----------------------------------
b--------------------------------------5-5h6-5~~------------------
g---------------------------------------------------------4h5-4h5-
d-7--7-7---------3--3-------------2--2-----------1--1---7---------
a-0--0-----------x--x-------------x--x-----------x--x-------------
d----------------3--3-------------2--2-----------1--1-------------

That’s all
just piece it together

trevor jones
timmy91199@yahoo.ca
Artist: Adema
Song Title: Giving In
Album: Adema
Submitted By: IcEmAn
Tabbed by: J_dogg_0@hotmail.com

Tuning: 1 step down drop D (CGCFAD [low to high])

^=notes with this above them means bend them.
~=notes with this behind them means to give that note a vibrato effect.

INTRO---

guitar 2

D|-------------------------------------------|
A|-------------------------------------------|
F|-------15----15-15-15----15----15-15-15----| x5
C|----16----16----------15----15-------------|
G|-------------------------------------------|
C|-------------------------------------------|

D|----18--18--18--18----|
A|----------------------|
F|----15--15--15--15----|
C|----------------------|
G|----------------------|
C|----------------------|
(0:01)
This part is played with an echo effect. The last part gradually gets
louder.


guitar 1

D|----------------------------------------|
A|----------------------------------------|
F|----5h6p5----3h5p3----------------------| x2
C|----------------------3h4p3-------------|
G|-------------------------------3h4p3----|
C|----------------------------------------|
(0:06)
This part you play softly in the back ground. It is played using an
octave effect. Gradually get louder.


BRIDGE 1---

guitar 1

D|--------------------------------------------------------------------|
A|--------------------------------------------------------------------|
F|----------5h6p5------------3h5p3------------------------------------| x4
C|--8--8-------------4--4-------------1--1----3h4p3----1--1-----------|
G|--8--8-------------4--4-------------1--1-------------1--1----3h4p3--|
C|--8--8-------------4--4-------------1--1-------------1--1-----------|
(0:19)
This part of the song is played using an Octave effect. The octave
effect adds a cool darkness to this part.


guitar 2

D|--------------------------------------------------------------------|
A|--------------------------------------------------------------------|
F|--------------------------------------------------------------------|
C|--8--8--8--8----11--11--11--11----1--1--1--1--1--1--1--1----8--8--8-|
G|--8--8--8--8----11--11--11--11----1--1--1--1--1--1--1--1----8--8--8-|
C|--8--8--8--8----11--11--11--11----1--1--1--1--1--1--1--1----8--8--8-|

D|------------------------------------------------------------|
A|------------------------------------------------------------|
F|------------------------------------------------------------| x2
C|-8----11--11--11--11----13--13--13--13----16--16--15--15----|
G|-8----11--11--11--11----13--13--13--13----16--16--15--15----|
C|-8----11--11--11--11----13--13--13--13----16--16--15--15----|
(0:19)
Each note in this part represents an up and down stroke. Other than that
this part is played with a normal distortion.


VERSE 1---

guitar 2

D|----------------------| |----18--18--18--18----|
A|----------------------| |----------------------|
F|----15--15--15--15----| |----15--15--15--15----|
C|----------------------| |----------------------|
G|----------------------| |----------------------|
C|----------------------| |----------------------|
(0:44)
In the verse it is mainly bass. This guitar part is played in the back
ground. Gradually get louder than softer again, and at the end play the
second part. It is played through the entire verse.


CHORUS 1---

guitar 2

D|------------------------------------|
A|--11-------^------------------------|
F|------13--10--10--8--8/13--13~~~----| x4
C|------------------------------------|
G|------------------6--6/11--11~~~----|
C|------------------------------------|
(1:09)
This part is played with a lighter distortion and an effect that makes
it sound like two guitars are playing it.


guitar 1

D|--------------------------------------|
A|--------------------------------------|
F|--------------------------------------| x4
C|--8--8----4--4----1--1----1--1--0--0--|
G|--8--8----4--4----1--1----1--1--0--0--|
C|--8--8----4--4----1--1----1--1--0--0--|
(1:09)
This is played in the back ground. Use just normal distortion.


BRIDGE 2---

guitar 1

D|--------------------------------------------------------------------|
A|--------------------------------------------------------------------|
F|----------5h6p5------------3h5p3------------------------------------| x2
C|--8--8-------------4--4-------------1--1----3h4p3----1--1-----------|
G|--8--8-------------4--4-------------1--1-------------1--1----3h4p3--|
C|--8--8-------------4--4-------------1--1-------------1--1-----------|
(1:34)
This part of the song is played using an Octave effect. The octave
effect adds a cool darkness to this part.


guitar 2

D|--------------------------------------------------------------------|
A|--------------------------------------------------------------------|
F|--------------------------------------------------------------------|
C|--8--8--8--8----11--11--11--11----1--1--1--1--1--1--1--1----8--8--8-|
G|--8--8--8--8----11--11--11--11----1--1--1--1--1--1--1--1----8--8--8-|
C|--8--8--8--8----11--11--11--11----1--1--1--1--1--1--1--1----8--8--8-|

D|------------------------------------------------------------|
A|------------------------------------------------------------|
F|------------------------------------------------------------|
C|-8----11--11--11--11----13--13--13--13----16--16--15--15----|
G|-8----11--11--11--11----13--13--13--13----16--16--15--15----|
C|-8----11--11--11--11----13--13--13--13----16--16--15--15----|
(1:34)
Each note in this part represents an up and down stroke. Other than that
this part is played with a normal distortion.


VERSE 2---

guitar 2

D|----------------------| |----18--18--18--18----|
A|----------------------| |----------------------|
F|----15--15--15--15----| |----15--15--15--15----|
C|----------------------| |----------------------|
G|----------------------| |----------------------|
C|----------------------| |----------------------|
(1:46)
In the verse it is mainly bass. This guitar part is played in the back
ground. Gradually get louder than softer again, and at the end play the
second part.


guitar 1

D|-------------|
A|-------------|
F|-------------| x1
C|-------------|
G|----3h4p3----|
C|-------------|
(1:58)
This part is played during the second verse using the octave effect.
Nothing major.


CHORUS 2---

guitar 2

D|------------------------------------|
A|--11-------^------------------------|
F|------13--10--10--8--8/13--13~~~----| x4
C|------------------------------------|
G|------------------6--6/11--11~~~----|
C|------------------------------------|
(2:13)
This part is played with a lighter distortion and an effect that makes
it sound like two guitars are playing it.


guitar 1

D|--------------------------------------|
A|--------------------------------------|
F|--------------------------------------| x4
C|--8--8----4--4----1--1----1--1--0--0--|
G|--8--8----4--4----1--1----1--1--0--0--|
C|--8--8----4--4----1--1----1--1--0--0--|
(2:13)
This is played in the back ground. Use just normal distortion.


SOLO---

guitar 1

D|---------------------------------------------------------------------|
A|-----------------------------------------------------------11--------|
F|--------------------11-----------------------------------------------|
C|----------11h13p11------13p11--11h13p11----------11h13p11------13p11-|
G|--13--13---------------------------------13--13----------------------|
C|---------------------------------------------------------------------|

D|------------------|
A|------------------|
F|------------------| x2
C|--10h11p10--------|
G|------------(13)--|
C|------------------|
(2:37)
This is the guitar solo. Play it using mild distortion and a wah effect.
Play the last note (the G13 in ()) only the second time around, and let
it ring out.


guitar 2

D|--------------------------------------------------------------------|
A|--------------------------------------------------------------------|
F|--------------------------------------------------------------------|
C|--8--8--8--8----11--11--11--11----1--1--1--1--1--1--1--1----8--8--8-|
G|--8--8--8--8----11--11--11--11----1--1--1--1--1--1--1--1----8--8--8-|
C|--8--8--8--8----11--11--11--11----1--1--1--1--1--1--1--1----8--8--8-|

D|------------------------------------------------------------|
A|------------------------------------------------------------|
F|------------------------------------------------------------|
C|-8----11--11--11--11----13--13--13--13----16--16--15--15----|
G|-8----11--11--11--11----13--13--13--13----16--16--15--15----|
C|-8----11--11--11--11----13--13--13--13----16--16--15--15----|
(2:37)
This is in the background being played during the solo. Use normal
distortion


HARD/HEAVY PART---

guitar 1

D|--------------------------------------|
A|--------------------------------------|
F|--------------------------------------| x4
C|--8--8----4--4----1--1----1--1--0--0--|
G|--8--8----4--4----1--1----1--1--0--0--|
C|--8--8----4--4----1--1----1--1--0--0--|
(3:15)
Play this using the octave effect


guitar 2

D|------------------------------------|
A|------------------------------------|
F|--5h6p5----3h5p3--------------------| x4
C|--------------------3h4p3-----------|
G|-----------------------------3h4p---|
C|------------------------------------|
(3:15)
PLay this part using a wah effect, play along to the words sung.


CHORUS 3---

guitar 2

D|------------------------------------|
A|--11-------^------------------------|
F|------13--10--10--8--8/13--13~~~----| x4
C|------------------------------------|
G|------------------6--6/11--11~~~----|
C|------------------------------------|
(3:40)
This part is played with a lighter distortion and an effect that makes
it sound like two guitars are playing it.


guitar 1

D|--------------------------------------|
A|--------------------------------------|
F|--------------------------------------| x4
C|--8--8----4--4----1--1----1--1--0--0--|
G|--8--8----4--4----1--1----1--1--0--0--|
C|--8--8----4--4----1--1----1--1--0--0--|
(3:40)
This is played in the back ground. Use just normal distortion.


CHORUS 4---

guitar 2

D|--18--16---^-------------------|
A|----------18--18--16-----------|
F|----------------------13~~~----| x2
C|-------------------------------|
G|----------------------11~~~----|
C|-------------------------------|
(4:05)
This part is played with a lighter distortion and an effect that makes
it sound like two guitars are playing it.


guitar 1

D|--------------------------------------|
A|--------------------------------------|
F|--------------------------------------| x2
C|--8--8----4--4----1--1----1--1--0--0--|
G|--8--8----4--4----1--1----1--1--0--0--|
C|--8--8----4--4----1--1----1--1--0--0--|
(4:05)
This is played in the background using normal distortion.


OUTRO---

guitar 2

D|-------------------------------------------|
A|-------------------------------------------|
F|-------15----15-15-15----15----15-15-15----|
C|----16----16----------15----15-------------|
G|-------------------------------------------|
C|-------------------------------------------|
(4:20)
Play it lightly. Fade out gradually.
E----------------------------------------------------------
B------10----10-10-10-10-10----10--10-10-10-10-10--10----10
G---10----10-----------------9---9--------------------10---



and it starts to build up i think it is like:
A-----4-4-4-4-4-4-4-4-6-6-6-6-6-6-6-6-9-9-9-9-9-9-9-9
E-----4-4-4-4-4-4-4-4-6-6-6-6-6-6-6-6-9-9-9-9-9-9-9-9

and then the lowest part i think goes like this: (it gradually gets louder, just listen and you can hear it build up until the first riff)
A----3-3-4-3-----2-2-3-2-----0-0-1-0---------
E-------------------------------------2-2-3-2
This was the song that got me into Adema so thought i'd tab it.

Intro: Gtr.1. Gtr.2 comes in the third time
slight distortion, wah, and delay play until chorus

e|---------------------------------| |------------------------------------|
B|---9---9-9-9-9-9---9---9-9-9-9-9-| |-9-9-9-9-9-9-9-9-9-9-9-9-9----------|
G|-9---9-----------8---8-----------|7X |------------------------------------|1X
D|---------------------------------| |------------------------------------|
A|---------------------------------| |------------------------------------|
E|---------------------------------| |------------------------------------|


Main Riff - both play power chords gtr.1 plays fills
e|-----------------------------------------------|
B|-----------------------------------------------|
G|-----------------------------------------------|
D|6-6-8h9p8--9-9-6h8p6--11-11--------11-11-------|
A|6-6--------9-9--------11-11-6h7p6--11-11-------|
E|4-4--------7-7---------9--9---------9--9-6h7p6-|

(Solo - with wah)
Gtr.1
e|---------------------------4------------|
B|------4---------------------------------|
G|4h6p4---6p4-4h6p4----4h6p4---6p4-3h4p3--|
D|------------------6--------------------6|