Adema — Giving In (ver 9)

Adema
giving in


Intro:
|-----4---4-4-4-4-4---4---4-4-4-4-4-----|
|---5---5-----------4---4---------------|
|---------------------------------------|
|---------------------------------------|
|---------------------------------------|
|---------------------------------------|

Verse:

|-----------|*
|----4------|
|-----------|
|-----------|
|-----------|
|-----------|repeat until chorus

|-------------------------------------------------------------------|
|-------------------------------------------------------------------|
|-------------------------------------------------------------------|
|----6-6--8h9p8----9-9---6h8p6---11-11----------11-11---------------|
|----6-6-----------9-9-----------11-11--6h7h6---11-11---------------|
|----4-4-----------7-7-----------9--9-----------9--9---6h7p6--------|


Chorus:

|---4--2--0----------|**
|------------4--2/7--|
|--------------------|
|--------------------|
|--------------------|
|--------------------|

|-----------------------------------------------------|
|-----------------------------------------------------|
|----------------------11-11-11-11-11-----------------|
|---6-66-9-99-11-11-11-11-11-11-11-11-----------------|
|---6-66-9-99-11-11-11--9--9--9--9--9-----------------|
|---6-66-9-99-11-11-11--------------------------------|


Solo:
(wah)
|--------------------------------4---------------|
|--------4---------------------------------------|
|--4h6p4---6p4-4h6p4------4h6p4----6p4-3h4p3-----|
|---------------------6-4--------------------6---|
|------------------------------------------------|
|------------------------------------------------|


|----------------------------|
|----------------------------|
|----------------------------|
|----6-6----9-9----11-11-----|
|----6-6----9-9----11-11-----|
|----4-4----7-7----9--9------|


Bridge:
(wah)
|---------------------------------------|
|---11h12p11--9h11p9--------------------|
|---------------------9h10p9------------|
|-----------------------------9h10p9----|
|---------------------------------------|
|---------------------------------------|

|--------------------------------|
|--------------------------------|
|--------------------------------|
|----6-6----9-9----5-5----4-4----|
|----6-6----9-9----5-5----4-4----|
|----4-4----7-7----3-3----2-2----|