Adema — Immortal

На этой странице Вы можете ознакомиться с 3 версиями подбора аккордов для гитары к песне "Immortal" группы (исполнителя) "Adema".

Tuning:down 2 steps   SOme tabbed this song WRONG

E----------------------------------
A----------------------------------
D----------------------------------
G----------------------------------
B----------------------------------
E----19-1919-19-19-19-1919-19p20-17 intro/chorus

E----
A-7-8
D-x-x
G-9-10 towards the end gtr.2 plays this w/wah as filter
B-----
E-----

E-0-77-8-8-10-12--0-0-778--8-3-2
A---xx-x-x-x--x-------xxx--x-5-4
D---99-101012-14------9910-105-4 pre verse w/dist
G-------------------------------
B-------------------------------
E-------------------------------

E-------------------------
A-------------------------
D-------------------------
G-------------------------
B-13p12/8-5/8-13-12--8-5p8 w/volume pedal,chorus,and delay
E-------------------------

Pre chorus
pm ..................
E-9-5-10--555533332222000000--0-1p0-0-1p0-1-0
A11-7-12-------------------------------------
D11-7-12-------------------------------------
G--------------------------------------------
B-------------------------------------------- Chorus:
E--------------------------------------------

E-7777777-555555-888888-8-5-7
A-9999999-777777-10101010-7-9
D-9999999-777777-10101010-7-9
G----------------------------
B----------------------------
E----------------------------

outro

E-0-0-1-2-00-1-2-00-1-1-2-0
A-2-2-3-2-00-3-2-22-1-1-4-0
D-2-2-3------3---22-1-1-4-0
G--------------------------
B--------------------------
E--------------------------
INTRO

G------------------------- :|
D------------------------- :| repeat this and then play these notes as many
A----66-1-2-4-5-66-1-2-----:| times as needed just listen to the song.
E------------------------- :|


Verse/pre chrous

G------------------------------------------------------------------:| repeat
D------------------------------------------------------------------:|untill
A-66666666664444444442222222222222------------------4--------------:| chrous
E---------------------------------46666666666640--00---------------:|


ok this is all i figured out so far so some i correct it and finish it cuz it is
hard as shit to figure out! email me@ Ace2713@hotmail.com under subject write
TABS.
thanks
tabbed by IbanezUser

Intro

Db)----------------------------------------
Ab)----------------------------------------
Db)----------------------------------------
Gb)----------------------------------------
Bb)----------------------------------------
Eb)-19-(x7)-20^--19(x7)-17-----------------


Db)-2-2-9-9-9-10-10-10-12-12-13-14---------
Ab)-2-2-9-9-9-10-10-10-12-12-13-14---------
Db)-2-2-9-9-9-10-10-10-12-12-13-14---------
Gb)----------------------------------------
Bb)----------------------------------------
Eb)----------------------------------------

Chorus

Db)2-2-2-2-2-2-2-2-5-5-5-5-0-0-0-0-0-0-0-0-10-10-10-10-10-10-
Ab)2-2-2-2-2-2-2-2-5-5-5-5-5-5-5-5-5-5-5-5-10-10-10-10-10-10-
Db)2-2-2-2-2-2-2-2-5-5-5-5-7-7-7-7-7-7-7-7-10-10-10-10-10-10-
Gb)----------------------------------------------------------
Bb)----------------------------------------------------------
Eb)----------------------------------------------------------

After chorus and end

Db)2-2-2--5-2-1-1-2-2-2--5-2-1-1-
Ab)2-2-2--5-2-1-1-2-2-2--5-2-1-1-
Db)2-2-2--5-2-1-1-2-2-2--5-2-1-1-
Gb)------------------------------
Bb)------------------------------
Eb)------------------------------