Adema — Nutshell

Tabbed by IbanezUser

Intro

Eb)-------------0-0-0-0-0-3------------------0-----------------------------0-
Ab)-3-3-3-3-3-5------------5-3---3-3-3-3-3-5-----------------//-10-9-5-3-3---
Db)--------------------------------------------------0^2-0-5^7-5-------------
Gb)--------------------------------------------------------------------------

2nd part

Eb)-------------0-0-3------------------0------------------------0-
Ab)-3-3-3-3-3-5------5-3---3-3-3-3-3-5---------------10-9-5-3-3---
Db)--------------------------------------0^2-0-5^7-5--------------
Gb)---------------------------------------------------------------

Verse

Eb)-------------0-0-3------------------0------------------------0-
Ab)-3-3-3-3-3-5------5-3---3-3-3-3-3-5---------------10-9-5-3-3---
Db)---------------------------------------2-0-7-5-----------------
Gb)---------------------------------------------------------------

Chorus
The same as the verse and intro