Adema — Pain Inside

Band: Adema
Song: Pain Inside
By Jonathan Bissonnette

Tuning B F# B E G# C#

*The lead in the song was hard to pick out, but i tried, Enjoy :-)

intro/Verse

|-------12-----16------12-|
|----14-------------14----|
|-13-------13-----13------|
|-------------------------|
|-------------------------|
|-------------------------|

Chorus
Gtr.1

|----------------|
|----------------|
|----------------|
|-4-4/7-0-0~--2/-|
|-4-4/7-0-0~--2/-|
|-4-4/7-0-0~--2/-|

Gtr.2

|------------------------------------------|
|------14~~----------------14~~------------|
|-13~~------13~~~~---13~~~------14~~/13~~~-|
|------------------------------------------|
|------------------------------------------|
|------------------------------------------|

Bridge (before second chorus)

Gtr.1

|---------|---|
|---------|---|
|-4-----3-|---|
|-4--2--3-|-1-|
|-2--2--1-|-1-|
|----2----|-1-|
*Add this the first and third time

Gtr.2

|------------|
|-12----11~~-|
|----13------|
|------------|
|------------|
|------------|

Bridge (after second chorus) and Outro

Gtr.1

|-------|
|-------|
|-------|
|-4---0-|
|-4---0-|
|-4---0-|

Gtr.2

|----16/17~~-----1716~~-|
|-14---------------------|
|-------------14---------|
|------------------------|
|------------------------|
|------------------------|