Adema — Promises

На этой странице Вы можете ознакомиться с 2 версиями подбора аккордов для гитары к песне "Promises" группы (исполнителя) "Adema".

Adema - Promises
Submitted By: Stand Alone (projectwyze13@hotmail.com)

Tuning: Drop D - D A D G

Intro:
G|----------------------------------------------------------|
D|----------------------------------------------------------|
A|--------------6-6--4-4------------------------------------|
D|--3-3--5-5------------------------------------------------|

Verse:
G|----------------------------------------------------------|
D|----------------------------------------------------------|
A|--------------------4-4-----------------------------------|
D|--3-3--5-5--1-1-------------------------------------------|

Pre-chorus:
G|----------------------------------------------------------|
D|----------------------------------------------------------|
A|--------------6-6--4-4--6-4-------------------------------|
D|--3-3--5-5--------------------6-3-------------------------|

Chorus:
G|-----------------------|----------------------------------|
D|-----------------------|----------------------------------|
A|-------------6-6--4-4--|-------------------4-4--4-2-------|
D|--3-3--5-5-------------|--3-3--5-5--1-1--------------5-3--|

Post-chorus:
G|----------|-----------------------------------------------|
D|----------|-----------------------------------------------|
A|------4---|---1----4--------------------------------------|
D|--3-------|-----------------------------------------------|
this is only the acoustic part of the great song by this band
you can either play it in standard or drop d tuning enjoy eryk

strumming not defined
e---------------------------------
g---------------------------------
b-----5---------6-----------------
d--3--5----6----6-----------------
a--3--3----6----4-----------------
e--1-------4----------------------

thats it seriously through the whole song now i'm not sure if he playsit in
standard flat or just standard the acoustic doesn't do anything durning the
bridgeany corrections e-mail to chevelle6905@yahoo.com or
ibanez_guitarist_7@hotmail.com