Adema — Stand Up

На этой странице Вы можете ознакомиться с 2 версиями подбора аккордов для гитары к песне "Stand Up" группы (исполнителя) "Adema".

Adema - Stand Up
Submitted By: Stand Alone (projectwyze13@hotmail.com)


Tuning: Drop D - D A D G

Intro/Bridge:
G|--------------------------------------|
D|--------------------------------------|
A|--------------------------------------|
D|--3-3-3-3-0-0-0-0-1-1-1-1-1-1-1-1-----|

Verse:
G|--------------------------------------|
D|--------------------------------------|
A|--------------------------------------|
D|--3--3------5--5------1--1------1--1--|

Chorus:
G|--------------------------------------|
D|--------------------------------------|
A|--------------------------------------|
D|--3-0-1--6666-5555-6566---------------|
Adema - Stand Up
Submitted By: Stand Alone (projectwyze13@hotmail.com)

Tuning: Drop D - D A D G B e

Intro:
e|-------------------------------------------------------------------------|
B|-------------------------------------------------------------------------|
G|------------------------------------------------------------------8------|
D|---------8p7--8p7-----------8h10p87-----------8p7--8p7-------------9-8--|
A|--6h8----------------6h8----------------6h8----------------6h8-----------|
D|-------------------------------------------------------------------------|

e|-------------------------------------------------------------------------|
B|-------------------------------------------------------------------------|
G|-------------------------------------------------------------------------|
D|--3---------------0---------------1--------------------------------------|
A|--3---------------0---------------1--------------------------------------|
D|--3---------------0---------------1--------------------------------------|

Verse:
e|-------------------------------------------------------------------------|
B|-------------------------------------------------------------------------|
G|-------------------------------------------------------------------------|
D|--3---------------5---------------1--------------------------------------|
A|--3---------------5---------------1--------------------------------------|
D|--3---------------5---------------1--------------------------------------|

Chorus:
e|-------------------------------------------------------------------------|
B|-------------------------------------------------------------------------|
G|-------------------------------------------------2----------4------------|
D|-3-----------0-----------1-----------5-----------2----------4------------|
A|-3-----------0-----------1-----------5-----------0----------2------------|
D|-3-----------0-----------1-----------5-----------------------------------|