Adema — The Way You Like It

На этой странице Вы можете ознакомиться с 6 версиями подбора аккордов для гитары к песне "The Way You Like It" группы (исполнителя) "Adema".

i was 2 lazy to write out the rest of the song (theres 2 much damn overdubbing) but this 
is 100% correct, garunteed

both guitars are 6 strings, tuned down 3 whole steps (low to high): Bb Eb Ab Db F Bb

Intro:
G1-x4
Bb----------------------------------------------------------
F-----------------------------------------------------------
Db----------------------------------------------------------
Ab----------------------------------------------------------
Eb--7-7-7-7-7-7-7-7-7-7-7-7-7-7-7-7-------------------------
Bb----------------------------------------------------------

then: x2
Bb----------------------------------------------------------
F-----------------------------------------------------------
Db------------9-9-------------4-/12-12-12-------------------
Ab----------9------9---5--------x--x--x--------------------
Eb--------7-----------3---3-2---/10-10-10-------------------
Bb--0-0-0---------------------------------------------------

G2 (1 octave above w/ whammy pedal)
Bb---------------------22-20-19~~~~~~~~~~~~~~~~~~~~~~~~~~~~~
F-----------------------------------------------------------
Db----------------------------------------------------------
Ab----------------------------------------------------------
Eb----------------------------------------------------------
Bb----------------------------------------------------------

Bb-----22-20-19~~~~~~~~~~~~~-------------22-20-19-----------
F----0------------------------------------------------------
Db----------------------------------------------------------
Ab----------------------------------------------------------
Eb----------------------------------------------------------
Bb----------------------------------------------------------
(dive w/ whammy pedal)
Bb-22-20-19~~~~~~~~~~~--------------------------------------
F-----------------------------------------------------------
Db----------------------------------------------------------
Ab----------------------------------------------------------
Eb----------------------------------------------------------
Bb----------------------------------------------------------

G3

(rests for first 4 measures)

then: x2
Bb-------------------------------
F--------------------------------
Db-------------------------------
Ab--------------9-9-5-5-5-4/12--
Eb------------9---x--x-x-x-x-x---
Bb--0-0-0-7-7-----7-3-3-3-2/10--
#------------Created with Taborama Tab Creator-----------------#
#------------------------------------------------------------------------------#

Title: The Way You Like It
Artist: Adema
Album:

Instrument: 4 String Bass

Tabbed by: Lord Headley (Lord_Headley@yahoo.com)

Tuning: Standard (E A D G)

This is what i always play in my band and it sounds fine to me.
The intro is just what i messed around with and it sounds cool
but i doubt it's right.

Intro
G|---------------------------------||
D|------5-7------------------------||
A|--5-7-----7-5--------------------||
E|6-------------6------------------||

Chorus (no bass) 2x

Verse (A)
3x 1x
G|------------|--------------------------------------||
D|------------|--------------------------------------||
A|------------|--------------------------------------||
E|66-66-66-66-|66-66-66-44/-999----------------------||

Verse (B)
3x 1x
G|------------|---------------------||
D|------------|---------------------||
A|------------|---------------------||
E|66-66-66-66-|66-66-66-------------||


Chorus 4x

G|---------------------------------||
D|---------------------------------||
A|----------999-888----------------||
E|666666666--------999-------------||

Verse (A)
Verse (B)
Chorus 4x

Interlude
2x
G|---------------------------------||
D|---------------------------------||
A|---------------------------------||
E|66-66-66-66---66-66-66-44/-999---||

3x 1x
G|------------|--------------------||
D|------------|--------------------||
A|------------|--------------------||
E|66-66-66-66-|66-66-66-44/-9*-----||

Chorus 9x
==========Adema
The Way You Like It

Transcribed By: Ryan Huntsman (IbanezBassMX)
Email: Ryan82184@aol.com

Tunning- tuned down 1/2 step- low to high
(E,A,D,G)

Intro (0:00)
G----------------------------------------------------------------------
D----------------------------------------------------------------------
A---------------------------------------------------------5-7-7h9-7-5--
E-5-5-------5----5-5---5-5--5---5-5-------5----5-5----5-7--------------

G----------------------------------
D----------------------------------
A----------------------------------
E-7-7--7---------------------5-5--

Verses (0:23, 1:10)
G----------------------------------------------
D----------------------------------------------
A----------------------------------------------
E-5-5-------5-5----5-5----5-5------5-5----5-5--

G-----------------------------------------------------------
D-----------------------------------------------------------
A-----------------------------------------------------------
E-5-5-------10-10/12-12-12---7-7--7-----5-5----5-5----5-5--

Chorus (0:47, 1:33, 2:32)
G------------------------------------------------------------
D------------------------------------------------------------
A------------------------------------------------------------
E-5-5-------5-5----5---5-5----5-5-------5-7-7-7-7--5-7~--5/--

G------------------------------------------------------------
D------------------------------------------------------------
A------------------------------------------------------------
E-3-3---3/5--2~--2--/10-10-10-10---5-7-7-7-7---5-7~--5-5-5/--

G-----------------------------------------------------------------------------------
D-----------------------------------------------------------------------------------
A-----------------------------------------------------------------------------------
E-3-3--3/5--2~-2--2-/10-10-10-10--7-7-7-7-7--5-7~--5/--3-3--3/5--2~-2-/10-10-10-10--

Bass Fill (1:10)
G-------------------
D-------------------
A-------------------
E-7-7~---5-5----5--

Interlude (1:57)
G----------------------------------------------------------------
D----------------------------------------------------------------
A----------------------------------------------------------------
E-10-7~~--5---5-5------5-5--5---5-5-------5----5-5------5-5---5--

Bridge (2:09)
G---------------14~~~----------13-13-----------------------
D---------------16~~~-------14-------14-14-14/16----------- X3
A------------------------------------------------14-14-14--
E-5-5----5---5---------------------------------------------

G---------14--------------------------------------------14--------
D------16--------------------------------------------16-----------
A-----------------------------------------------------------------
E-5-5--------------5-5----5---5-5-------5-5-----5-5----------5-5--

G-----------------------
D-----------------------
A--------------7h9-7-5--
E-5-5-------------------

(2:52)
G-------------------------------------------------------
D-------------------------------------------------------
A----------------5-5-7/97-5-5--------------------------
E-3-3---3/5--2~-----------------------------------------

Outro Chorus (2:55)
G-------------------------
D-------------------------
A-------------------------
E-7-7-7-7-7-5-7~-5-5-7-0--

G--------------------------------
D-------------------------------- X3
A--------------------------------
E-3-3--35--2~--2--10-10-10-10--

Thats all of it, Have fun.
This tab is 100% correct.
Please rate this tab, Thanks.
The Way You Like It-Adema
Adema

Tuning:

Bb Eb Ab Db F Bb


Intro: (fill heard through all the song)

Gtr 2. w/ whammy pedal set up 1 octave.

e------------------22-20-19~~~~~~~~~~~~~~~------22-20-19----------
b-----------------------------------------------------------------
g-----------------------------------------------------------------
d-----------------------------------------------------------------
a-----------------------------------------------------------------
e-----------------------------------------------------------------

Gtr 1.

e-----------------------------------------------------------------
b-----------------------------------------------------------------
g-----------------------------------------------------------------
d-----------------------------------------------------------------
a-7-7-7-7-7-7-7-7-7-7-7-7-7-7-7-7-7-7-7-7-7-7-7-7-7-7-7-7-7-7-7-7-
e-----------------------------------------------------------------

Gtr 3.

e-----------------------------------------------------------------
b-----------------------------------------------------------------
g--------------9-------------------------------4--/12-12-12-12----
d------------9----------9-------------5-------------x--x--x--x----
a--------7----------------------3-------3-2-------/10-10-10-10----
e-0-0--0----------------------------------------------------------

Gtr 1.

e-----------------------------------------------------------------
b-----------------------------------------------------------------
g--------------9--------9-------5-5---5---4----4--/12-------------
d------------9----------x-------x-x---x---x----x----x-------------
a--------7-7------------7-------3-3---3---2----2--/10-------------
e-0-0--0----------------------------------------------------------

Gtr 2.

e--------------------22--20-19------------------------------------
b-----------------------------------------------------------------
g-----------------------------------------------------------------
d-----------------------------------------------------------------
a-----------------------------------------------------------------
e-----------------------------------------------------------------

Verses: 2 gtrs. arr for one.

... don’t live ashamed ‘cause feelings changed...

x3
e-----------------------------------------------------------------
b-----------------------------------------------------------------
g-16-16---16-16---16-16---16-16-----------------------------------
d-14-14---14-14---14-14---14-14-----------------------------------
a-14-14---14-14---14-14---14-14-----------------------------------
e-12-12---12-12---12-12---12-12-----------------------------------

e-----------------------------------------------------------------
b-----------------------------------------------------------------
g-16-16---16-16---16-16----14-14---/19-19-19-19-------------------
d-14-14---14-14---14-14----12-12---/17-17-17-17-------------------
a-14-14---14-14---14-14----12-12---/17-17-17-17-------------------
e-12-12---12-12---12-12-------------------------------------------

x3
e-----------------------------------------------------------------
b-----------------------------------------------------------------
g-16-16---16-16---16-16---16-16-----------------------------------
d-14-14---14-14---14-14---14-14-----------------------------------
a-14-14---14-14---14-14---14-14-----------------------------------
e-12-12---12-12---12-12---12-12-----------------------------------

e-----------------------------------------------------------------
b-----------------------------------------------------------------
g-16-16---16-16---16-16-------------------------------------------
d-14-14---14-14---14-14-------------------------------------------
a-14-14---14-14---14-14-------------------------------------------
e-12-12---12-12---12-12-------------------------------------------

Chorus: ...Sometimes i only remember...

e-----------------------------------------------------------------
b-----------------------------------------------------------------
g-----------------9------9---5----5----4---------/12-12-12-12----
d------------------------x----x----x----x-----------x--x--x--x----
a----------7---7---------7---3----3----2---------/10-10-10-10----
e-0-0---0---------------------------------------------------------

Fill over chorus 2&3

e-------14h15p14-----15p14----15p12-------------------------------
b----12-----------------------------------12h13-12---12h13-12-----
g-----------------------------------------------------------------
d-----------------------------------------------------------------
a-----------------------------------------------------------------
e-----------------------------------------------------------------

Interlude:

e-----------------------------------------------------------------
b-----------------------------------------------------------------
g-129--9---------------------------------------------------------
d-----------------------------------------------------------------
a-107--7---------------------------------------------------------
e-----------------------------------------------------------------

Bridge: ...You would always say i’d never be shit...

e-----------------------------------------------------------------
b-----------------------------------------------------------------
g-16-16---16-16---16-16---16-16-----------------------------------
d-14-14---14-14---14-14---14-14-----------------------------------
a-14-14---14-14---14-14---14-14-----------------------------------
e-12-12---12-12---12-12---12-12-----------------------------------


that’s about all

trevor jones
timmy91199@yahoo.ca
This is Adema's new single which I totally love...as soon as I heard it I grabbed my guitar & it was pretty easy to get.  I haven't had the time to get all the leadwork and such, but here's a good start.

The intro/verses is just the chord of Bb (sounds best played in drop D so it's easier to follow the strum pattern).

The chorus/bridge is Bb, F#, F

The song can be played in standard tuning, but the strum pattern is much easier to imitate in Drop D.

If anyone else figures out all the leadwork, etc., hook us up! PeAcE!
Adema: The Way You Like It
Album: Adema

Intro
Guitar 1
e------------------x8-----------------------------------x2--|
B-----------------------------------------------------------|
G--------------------------------1111-1111-1010-1010--------|
D-8-8-8-8-8-8-8-8-------88-88-88-1111-1111-1010-1010-1111---|
A-8-8-8-8-8-8-8-8-------88-88-88-9-9--9-9--8-8--8-8--1111---|
E-6-6-6-6-6-6-6-6-------66-66-66---------------------9-9----|

Guitar 2
e-16*---14*---13*-------------------------------------------|
B-----------------------------------------------------------|
G-----------------------------------------------------------|
D-----------------------------------------------------------|
A-----------------------------------------------------------|
E-----------------------------------------------------------|


Verse
Both Guitars (x2)
e---------------------------------------------------------------|
B---------------------------------------------------------------|
G---------------------------------------------------------------|
D--88-88-88-88--88-88-88-88--88-88-88-88--88-88-88-66/-1111111--|
A--88-88-88-88--88-88-88-88--88-88-88-88--88-88-88-66/-1111111--|
E--66-66-66-66--66-66-66-66--66-66-66-66--66-66-66-44/-9-9-9-9--|

Chorus: intro (x4)
Verse
Chorus

Fill
Guitar 2 (Guitar 1 plays verse)
e-----------13*--14*--13*-----------------------------------|
B-14--13--11------------------------------------------------|
G-----------------------------------------------------------|
D-----------------------------------------------------------|
A-----------------------------------------------------------|
E-----------------------------------------------------------|
ADEMA
THE WAY YOU LIKE IT


Tuning Standard
Intro/Chorus

Gtr 1
------------------x8-----------------------------------x2--
-----------------------------------------------------------
--------------------------------1111-1111-1010-1010--------
-8-8-8-8-8-8-8-8-------88-88-88-1111-1111-1010-1010-1111---
-8-8-8-8-8-8-8-8-------88-88-88-9-9--9-9--8-8--8-8--1111---
-6-6-6-6-6-6-6-6-------66-66-66---------------------9-9----


Gtr 2 (Play this 4x- the first very quiet)
-16*---14*---13*-------------------------------------------
-----------------------------------------------------------
-----------------------------------------------------------
-----------------------------------------------------------
-----------------------------------------------------------
-----------------------------------------------------------


Verse

Both Guitars

-----------------------------------------------------------
---------------------------------------------------x2------
-----------------------------------------------------------
88-88-88-88--88-88-88-88--88-88-88-88--88-88-88-66/-1111111
88-88-88-88--88-88-88-88--88-88-88-88--88-88-88-66/-1111111
66-66-66-66--66-66-66-66--66-66-66-66--66-66-66-44/-9-9-9-9


Fill

Gtr 2 (Guitar 1 plays verse)
-----------13*--14*--13*-----------------------------------
-14--13--11------------------------------------------------
-----------------------------------------------------------
-----------------------------------------------------------
-----------------------------------------------------------
-----------------------------------------------------------