Adema — Trust

Adema-Trust
This song is in standard tuning..No one seem to have the tab for it
so i made it myself.It's not hard just need to know how to song goes
to have the strumming part right..ADEMA ROCKS!!!!

slide down
/ slide up
x mute (or times)

Intro (2x)
e]--------------------------------------------------------------------------[
B]--------------------------------------------------------------------------[
G]--------11-11-11--7777-------------------99--12-12-12--11-11-11--12-------[
D]-99999--11-11-11--7777--7---99999--7777--99--12-12-12--11-11-11--12--88888[
A]-99999--9--9--9---5555--7---99999--7777--77--10-10-10--9--9--9---10--88888[
E]-77777------------------5---77777--5555------------------------------66666[
(10x)

~~~Keyboard part~~~~


1st time Main Part (Play once)
e]--------------------------------------------------------------------[
B]--------------------------------------------------------------------[
G]------------------------------------------12---11--/--12--/--15----[
D]--------13---11--/--12---14---11--/--12----x-----x------x------x----[
A]---------x----x------x----x----x------x---10----9--/--10--/--13----[
E]--------11----9--/--10---12----9--/--10-----------------------------[
(8x) (2x) (6x) (6x) (2x) (8x) (4x) (4x) (4x) (4x)


~~~Keyboard part~~~~

2nd time Main Part (4x)
e]---------------------------------------------------------------------[
B]---------------------------------------------------------------------[
G]------------------------------------------12---11--/--12--/--15-----[
D]--------13---11--/--12---14---11--/--12----x-----x------x------x-----[
A]---------x----x------x----x----x------x---10----9--/--10--/--13-----[
E]--------11----9--/--10---12----9--/--10------------------------------[
(8x) (2x) (6x) (6x) (2x) (8x) (4x) (4x) (4x) (4x)



After top (2x)
e]--------------------------------------------------------------------------[
B]--------------------------------------------------------------------------[
G]--------11-11-11--7777-------------------99--12-12-12--11-11-11--12-------[
D]-99999--11-11-11--7777--7---99999--7777--99--12-12-12--11-11-11--12--88888[
A]-99999--9--9--9---5555--7---99999--7777--77--10-10-10--9--9--9---10--88888[
E]-77777------------------5---77777--5555------------------------------66666[
(10x)

Near ending (4x)
e]---------------------------------------------------------------------[
B]---------------------------------------------------------------------[
G]------------------------------------------12---11--/--12--/--15-----[
D]--------13---11--/--12---14---11--/--12----x-----x------x------x-----[
A]---------x----x------x----x----x------x---10----9--/--10--/--13-----[
E]--------11----9--/--10---12----9--/--10------------------------------[
(8x) (2x) (6x) (6x) (2x) (8x) (4x) (4x) (4x) (4x)


Guitar 1 Ending
e]-----------------------------[
B]-----------------------------[
G]-----------------------------[
D]--------13---12--/--14-------[
A]---------x----x------x-------[
E]--------11---10--/--12-------[
(6x) (4x) (6x)


Guitar 2 Ending
e]-----------------------------[
B]-----------------------------[
G]-------------14---9----------[
D]---------9----x---x----------[
A]---------x---12---7----------[
E]---------7-------------------[
(6x) (4x) (6x)

...Justin67152@hotmail.com...