Adema — Unstable

Adema - Unstable
Submitted By: Stand Alone (projectwyze13@hotmail.com)


Tuning: Drop D - D A D G

Intro/Bridge:
G|-------------------------1-1--33333-------------|
D|----------11111-----11111-----------------------|
A|--3--3-3-------3-3-----------------1-1--222223--|
D|------------------------------------------------|

Verse:
G|------------------------------------------------|
D|------------------------------------------------|
A|------------------------------------------------|
D|--3-1----333331----3-1----333331----------------|

Chorus:
G|---------0-------0-------0-------0--------------|
D|------------------------------------------------|
A|--3333333-3333333-33333333-3333333--------------|
D|------------------------------------------------|