Adicts — Come Along

Band: Adicts
Song: Come Along
tabbed by jam9383@yahoo.com

Intro

e-4-4----0-----0-2/5-5-5/9---------
B----0-0---0-0-------------0-------
G----------------------------------
D----------------------------------
A----------------------------------
E----------------------------------

Verse/ Chorus

with intro
E A B
e----------------------------------
B----------------------------------
G----------------------------------
D-222222-7777-9999-----------------
A-222222-7777-9999-----------------
E-000000-5555-7777-----------------

Plaved after E
A Ab G C
e----------------------------------
B----------------------------------
G-------5--------------------------
D-7-6-5-5--------------------------
A-7-6-5-3--------------------------
E-5-4-3----------------------------

B C C# D
e----------------------------------
B----------------------------------
G-4-5-6-7--------------------------
D-4-5-6-7--------------------------
A-2-3-4-5--------------------------
E----------------------------------

End
E C#
e----------------------------------
B----------------------------------
G-------------6--------------------
D-2-2-2-2-2-2-6--------------------
A-2-2-2-2-2-2-4--------------------
E-0-0-0-0-0-0----------------------


e-11-10-11-9-12-9-9-7-12-----------
B----------------------------------
G----------------------------------
D----------------------------------
A----------------------------------
E----------------------------------


If any corrections are needed contact me