Adicts — Johnny Was A Soldier

Well for those of you punk rockers who dont know the Adicts you should check them out!
They are incredible. This song take a little bit to learn but overall a great song.

http://www.suburbias.com/adicts/

Intro
G----------------------------------
D----------------------------------
A-5-5555-3-1-1111-3-3333-3-78-8887-
E----------------------------------

G--------------------------------------------------
D--------------------------------------------------
A-5-5555-3-1-1111-3-3333-3-78-88-78-88-78-88-78-88-
E--------------------------------------------------

Verse
G-----------------------------
D-----------------------------
A-88888-88888-88888-----------
E------------------88-8888----

G-----------------------------
D-5-555555--------------------
A----------6-666666-----------
E------------------6-66-66-66-

G---------------------------
D---------------------------
A-88888-88888-88888---------
E-----------------88-8888---

G----------------------------
D-5-555555-------------------
A---------6-666666-----------
E-----------------6-66-66-66-

Intro

Verse 2

G--------------------------
D--------------------------
A-88888-88888-88888--------
E------------------88-8888-

G----------------------------
D-5-555555-------------------
A---------6-666666-----------
E-----------------6-66-66-66-

G---------------------------
D---------------------------
A-88888-88888-8888----------
E------------------88-8888--

G---------------------------
D-5-555555------------------
A---------6-666666----------
E-----------------6---------

Chorus
G------------------------------
D--5-6-8-8-6-5----5-6-8-8-6-5--
A-6------------8-6-----------8-
E------------------------------

G------------------------------
D---5-6-5----------------------
A-6--------5-6-8-8-88-88-6-5---
E------- -6------------------8-

G------------------------------
D--5-6-8-8-6-5----5-6-8-8-6-5--
A-6------------8-6-----------8-
E------------------------------

G---------------------------
D---5-6-5-------------------
A-6-------5-6-8-88-88-88888-
E--------6------------------

Intro

3rd Verse
G--------------------------
D--------------------------
A-88888-88888-88888--------
E------------------88-8888-

G----------------------------
D-5-555555-------------------
A---------6-666666-----------
E-----------------6-66-66-66-

G----------------------------
D-5-555555-------------------
A---------6-666666-----------
E-----------------6-66-66-66-

G----------------------------
D-5-555555-------------------
A---------6-666666-----------
E-----------------6-66-66-66-

G-------------------------------
D-5-555555----------------------
A---------6-666666--------------
E-----------------6-------------

drunk