Adicts — Joker In The Pack

На этой странице Вы можете ознакомиться с 2 версиями подбора аккордов для гитары к песне "Joker In The Pack" группы (исполнителя) "Adicts".

I'm almost 100% sure on the chorus but the verse is correct though.

Verse

E -----------------------------------------------------
A -3(7)-2(7)-------------------------------------------
D -----------3(7)-2(4)-0(4)----------------------------
G -----------------------------------------------------

Chorus

E -----------------------------------------------------
A -----------------------------------------------------
D -5(5)-2(5)-5(5)-2(5)-5(5)-2(5)-3(5)-2(2)-0(2)--------
G -----------------------------------------------------
Band:Adicts
Song:Joker In the Pack

tabbed by jam9383@yahoo.com


Intro/Verse

e---------------------------------------------------------------------|
B---------------------------------------------------------------------|
G----------------------------------10-10-10-10-10-10--9-9-9-7-7-7-----|
D---10-10-10-10-10-10--9-9-9-9-9-9-10-10-10-10-10-10--9-9-9-7-7-7-----|
A---10-10-10-10-10-10--9-9-9-9-9-9-8--8--8--8--8--8---7-7-7-5-5-5-----|
E---8---8--8--8--8--8--7-7-7-7-7-7------------------------------------|

PM-----------------------------------------------------------------|PM
e----------------------------------------------------------------------|
B----------------------------------------------------------------------|
G----------------------------------10-10-10-10-10-10--9-9-9-7-7-7------|
D---10-10-10-10-10-10--9-9-9-9-9-9-10-10-10-10-10-10--9-9-9-7-7-7------|
A---10-10-10-10-10-10--9-9-9-9-9-9-8--8--8--8--8--8---7-7-7-5-5-5------|
E---8---8--8--8--8--8--7-7-7-7-7-7-------------------------------------|


Chorus

e---------------------------------------------------------------------|
B---------------------------------------------------------------------|
G------------------7-7-7----------------------------------------------|
D--2-2-2-2-2-2-2-2-7-7-7-10-10-10-10-10-10-10-10-11-11-11-10----------|
A--2-2-2-2-2-2-2-2-5-5-5-10-10-10-10-10-10-10-10-11-11-11-10----------|
E--0-0-0-0-0-0-0-0-------8--8--8--8--8--8--8--8--9--9--9--8-----------|

e---------------------------------------------------------------------|
B---------------------------------------------------------------------|
G-----------------------------------------------12-12-12-12-12-12-12--|
D--7-7-7-7-7-7-7-7-7-10-10-10-10-10-10-10-10-10-12-12-12-12-12-12-12--|
A--7-7-7-7-7-7-7-7-7-10-10-10-10-10-10-10-10-10-10-10-10-10-10-10-10--|
E--5-5-5-5-5-5-5-5-5-8--8--8--8--8--8--8--8--8------------------------|

If any corrections are needed contact me