Adicts — Straight Jacket

На этой странице Вы можете ознакомиться с 2 версиями подбора аккордов для гитары к песне "Straight Jacket" группы (исполнителя) "Adicts".

STRAIGHT JACKET - The Adicts

Tabbed by: Bryan Kunde (Kunders@new.rr.com)

G|--------------|X6
D|--------------|
A|-55-000-22-00-|
E|--------------|

G|-------------|X2
D|-------------|
A|-5---0-0-0-0-|
E|-------------|

G|--------------|X2
D|--------------|
A|-55-000-22-00-|
E|--------------|

G|---------------------------|
D|---------------------------|
A|-5555555555555555-00000000-|
E|---------------------------|

G|-------------------------------|
D|-------------------------------|
A|-5555-4444-3333-2222-1111-0000-|
E|-------------------------------|

G|---------|X2
D|---------|
A|-5--0--2-|
E|---------|

G|--------------|X6
D|--------------|
A|-55-000-22-00-|
E|--------------|

G|-------------|X2
D|-------------|
A|-5---0-0-0-0-|
E|-------------|

G|--------------|X2
D|--------------|
A|-55-000-22-00-|
E|--------------|

G|---------------------------|
D|---------------------------|
A|-5555555555555555-00000000-|
E|---------------------------|

G|-------------------------------|
D|-------------------------------|
A|-5555-4444-3333-2222-1111-0000-|
E|-------------------------------|

G|---------|X2
D|---------|
A|-5--0--2-|
E|---------|

G|----------|X8
D|----------|
A|-55555555-|
E|----------|

G|--------------|X6
D|--------------|
A|-55-000-22-00-|
E|--------------|

G|-------------|X2
D|-------------|
A|-5---0-0-0-0-|
E|-------------|

G|--------------|X2
D|--------------|
A|-55-000-22-00-|
E|--------------|

G|---------------------------|
D|---------------------------|
A|-5555555555555555-00000000-|
E|---------------------------|

G|-------------------------------|
D|-------------------------------|
A|-5555-4444-3333-2222-1111-0000-|
E|-------------------------------|

G|---------|X3
D|---------|
A|-5--0--2-|
E|---------|
Band:Adicts
Song:Straight Jacket

tabbed by jam9383@yahoo.com

Intro x2

e-17----17----17----17----17---------------------------------------
B----15----15----15----15----15------------------------------------
G------------------------------------------------------------------
D------------------------------------------------------------------
A------------------------------------------------------------------
E------------------------------------------------------------------

Verse

e------------------------------------------------------------------
B------------------------------------------------------------------
G-7-7--------------------------------------------------------------
D-7-7-7-7-9-9-9-7-7------------------------------------------------
A-5-5-7-7-9-9-9-7-7------------------------------------------------
E-----5-5-7-7-7-5-5------------------------------------------------

Chorus

e------------------------------------------------------------------
B------------------------------------------------------------------
G-3----------------------------------------------------------------
D-3-5-x-x-x-x-x----------------------------------------------------
A-1-5-x-x-x-x-x----------------------------------------------------
E---3-x-x-x-x-x----------------------------------------------------

e-12-15-12----------12---------------------------------------------
B----------13-13-13------------------------------------------------
G------------------------------------------------------------------
D------------------------------------------------------------------
A------------------------------------------------------------------
E------------------------------------------------------------------

e------------------------------------------------------------------
B------------------------------------------------------------------
G--7-7-6-6-5-5-4-4-3-3-2-2-2---------------------------------------
D--7-7-6-6-5-5-4-4-3-3-2-2-2---------------------------------------
A--5-5-4-4-3-3-2-2-1-1-0-0-0---------------------------------------
E------------------------------------------------------------------

e-0-0-0-0-5-5-0-0--------------------------------------------------
B------------------------------------------------------------------
G------------------------------------------------------------------
D------------------------------------------------------------------
A------------------------------------------------------------------
E------------------------------------------------------------------

Middle of song-
e-17----17----17----17----17----17----17--17--17--17--17-----------
B----15----15----15----15----15----15---15--15--15--17-------------
G------------------------------------------------------------------
D------------------------------------------------------------------
A------------------------------------------------------------------
E------------------------------------------------------------------

If any corrections are needed contact me