Adicts — Viva La Revolution

На этой странице Вы можете ознакомиться с 3 версиями подбора аккордов для гитары к песне "Viva La Revolution" группы (исполнителя) "Adicts".

The Adicts 
Viva La Revolution
bass tabs


G:-------------------------------------------------------
D:2222222222222222*---------------22--44444444-----------
A:------------------444444444444---------------22222222--
E:-------------------------------------------------------


G:-------------------------------------------------------
D:--4~-4~-4~-4~4~----------------------------------------
A:----------------2-2-2-2--------------------------------
E:-------------------------------------------------------

thats the whole song you just got to listen to the song and figure out where
to put everything in at also in some parts of the song you dont need to play the
second fret on the trhird string, have fun
Band:Adicts
Song:Viva La Revolution

tabbed by jam9383@yahoo.com

Intro/Chorus

e-----------------------------------------------------------------------|
B-----------------------------------------------------------------------|
G--------------------------------11-11-11-11-11-11-11-11-11-11----------|
D--11-11-11-11-11-11-11-11-11-11-11-11-11-11-11-11-11-11-11-11--9-9-10--|
A--11-11-11-11-11-11-11-11-11-11--9--9--9--9--9--9--9--9--9--9--9-9-10--|
E--9--9--9--9--9--9--9--9--9--9---------------------------------7-7-8---|


Verse
PM-------------------------------------------------------------------|PM
e-----------------------------------------------------------------------|
B-----------------------------------------------------------------------|
G--------------------------------11-11-11-11-11-11-11-11-11-11----------|
D--11-11-11-11-11-11-11-11-11-11-11-11-11-11-11-11-11-11-11-11--9-9-10--|
A--11-11-11-11-11-11-11-11-11-11--9--9--9--9--9--9--9--9--9--9--9-9-10--|
E--9--9--9--9--9--9--9--9--9--9---------------------------------7-7-8---|

e----------------------------------------------------------------------|
B----------------------------------------------------------------------|
G--9-----9-----11----9----11-------------------------------------------|
D--9-----9-----11----9----11-------------------------------------------|
A--7-----7-----9-----7----9--------------------------------------------|
E----------------------------------------------------------------------|


If any corrections are needed contact me
ViVA LA REVOLUTION - The Adicts

By J.W@lker, star5780@ix.netcom.com,

Fade In:
play the high strings of E5 [xxx999]

Intro:
Db6 E5 Gb5 B6 C6 x2 Viva!

Verse:
Db
Into the dungeon with the evil man,
E Gb
the people in prison are free again
E E
Come out of the closet, come out of the hole
Gb B C Db
Come out of the woodwork and into the fold

Verse 2:

Chorus:
Db Gb B C Db
Viva la revolution! x 4

Verse 3:

Chorus

Bridge:
Db E Gb E Gb E
Db E Gb E Gb B C
(cheering and shouting ensues)

Chorus - fade in bit - Chorus