Adolescents — Self Destruct

BAND:ADOLESCENTS 
SONG: Self destruct
TABBED BY: Tal .H.- hitnaarut@hotmail.com

Starts with guitar only, and then:

VERSE:

G:------------3-3--3-3-------------
D:-3-3------------------------3-3--
A:-----5-5-6-----------5-5-6-------
E:---------------------------------

CHORUS:

G:---------3--3-3-3----
D:---------------------
A:-3-3-3-3-------------
E:---------------------