Adolescents — The Liar

-------------------------------------------------------------------------------
THE LIAR - Adolescents
-------------------------------------------------------------------------------
Name: Bobby, E-mail: Forgetme34@aol.com
Added To UG By Mikhailo


Intro/Chorus:
F#G#A G# C#G#A G# F#G#A G# C#
E|----------------------------------------------------
B|-----------------------------6----------------------
G|-----------6-----------------6----------------------
D|--4-6-7-6--6-6-7-6--4-6-7-6--6----------------------
A|--4-6-7-6--4-6-7-6--4-6-7-6--4----------------------
E|--2-4-5-4----4-5-4--2-4-5-4-------------------------

Verse:
C# A
E|-------------------------
B|--------------2-2--------
G|--6-6-6-6-2-2-2-2--------
D|--6-6-6-6-2-2-2-2--------
A|--4-4-4-4-0-0-0----------
E|-------------------------

Bridge:
E D A C# D E
E|------------------------------------
B|------------------------------------
G|--9-9-9-7-7-7-----6-6-7-7-7-9-------
D|--9-9-9-7-7-7-7-7-6-6-7-7-7-9-------
A|--7-7-7-5-5-5-7-7-4-4-5-5-5-7-------
E|--------------5-5-------------------

Bridge Fill (Over the main bridge riff, I'm not that sure about this but
it seems close enough. Just mess with it some):

E|-------------------------------------------
B|-------------------------------------------
G|--11--14-13-9-14-13-9-14-13-9---7--9-------
D|-------------------------------------------
A|-------------------------------------------
E|-------------------------------------------

Solo (im not tabbing this out but here's the scale its in. its a Db
minor pentatonic):

E|---------------------------9-12------
B|----------------------9-12-----------
G|-----------------9-11----------------
D|------------9-11---------------------
A|-------9-11--------------------------
E|--9-12-------------------------------

========================================================================