Aerosmith — Big Ten Inch Record (btab)

G------------|-------4-5-4-----------|
D------------|---4-7-------7-4-|-------4-5-4-----|
A------------|-5---------------|---4-7-------7-4-|
E|-0-0---0-0-0---0-|-0---0-0---------------|-5---------------|

tacet
|-------4-5-4-----------|-------4-5-4-----------|
|---4-7-------7-4-------|---4-7-------7-4-|-------4-5-4-----|
|-5---------------|-7---------------|-5---------------|---4-7-------7-4-|
------------------|-5---------------|

[guitar solo]
------------------------|
4-5-6-|---4-5-6-7-4-----------------|
|---4-5-6-7-------|-7-----------7-4-------------|
|-7---------------------|-5-3-2-0-5-3-2-0-|-5-3-2-0-5-3-2-0-|


------------------------|
------------------|-------4-7-4-----|
|-5-3-2-0-5-3-2-0-------|-7-5-4---7-5-4---|---4-7-------7-6-|
------|-5-3-2-0-5-3-2-0-|-------7-------7-|-5---------------|

tacet
|-------4-5-4-----------|-------4-5-4-----------|
|---4-7-------7-4-|-------4-5-4-----|---4-7-------7-4-------|
|-5---------------|---4-7-------7-4-|-5---------------|-7---------------|
------|-5---------------------------|


|-------4-5-4-----------------------|
|---4-7-------7-4-|-------4-5-4-----4-5-6-|---4-5-6-7-4-----|
|-5---------------|---4-7-------7-4-|---4-5-6-7-------|-7-----------7-6-|
------|-5---------------|-7---------------------|

tacet
|-------4-5-4-----------|-------4-5-4-----------|
|---4-7-------7-4-|-------4-5-4-----|---4-7-------7-4-------|
|-5---------------|---4-7-------7-4-|-5---------------|-7---------------|
------|-5---------------------------|

(h = hammer-on)
|-------4-5-4----------------------5|
|---4-7-------7-4-|-------4-5-4-----4-5-6-|---4-5-6-----4h7-|
|-5---------------|---4-7-------7-4-|---4-5-6-7-------|-7-------0--7----|
------|-5---------------|-7---------------------|

+-- play each note as a triplet --+ [sax solo]
------4-5-6-------------|
------|-3-4-5-6-7-------------------|
|-------3-4-5-6-7-------|-5-3-2-0-5-3-2-0-------|
|-5-6-7-----------------------|-5-3-2-0-5-3-2-0-|


------------|-------4-5-4-----------|
------|-------4-7-4-----|---4-7-------7-4-|-------4-5-4-----|
|-7-5-4---7-5-4---|---4-7-------7-6-|-5---------------|---4-7-------7-4-|
|-------7-------7-|-5---------------------|-5---------------|

tacet
|-------4-5-4-----------|-------4-5-4-----------|
|---4-7-------7-4-------|---4-7-------7-4-|-------4-5-4-----|
|-5---------------|-7---------------|-5---------------|---4-7-------7-4-|
------------------|-5---------------|

tacet (hold)
------|---------14-12-9-|-7-5-------------|
4-5-6-------|-----7-5---------|
|---4-5-6-7-------|-7---------------|---------7-0-----|
|-7---------------------------|