Aerosmith — Dream On

Dream On - Aerosmith

intro
G|----------------------------------------------------------------|
D|3-33-33-33-33-33-33---3-31-3------3-33-333-333-1-------1-12-13--|
A|----------------------------5-54-4------------3-1-111-1---------|
E|----------------------------------------------------------------|

verse
"Everytime I look in the.." "..isn`t that the.."
G|------------------------------|-----------------------------|
D|3-------3-------3-------3-----|1-1--------------------------|
A|------13------13------13------|---3-34-43-14343434343434343-|
E|---1-------1-------1-------1--|-----------------------------|

"well I know nobody knows.."
G|-------------------------------------------|
D|3-31-3---1-13-31-3---1-3--33-33-33-33-33-33|
A|------4-4---------4-4----------------------|
E|------------------------1------------------|

"sing with me, sing for.."
G|----------------------------------------|
D|3-31-3---1-13-31-3---1------------------|
A|------4-4---------4-4--14343434343434343|
E|----------------------------------------|

chorus
"well, dream on, dream on.." chorus outro
G|-------------------------------|----------------------------------------|
D|---------1-13333-32------------|-----------13-35-56-68------------------|
A|1-13-34-4----------32------0---|1-13-34-41-------------13333333333333333|
E|---------------------32-023-11-|----------------------------------------|

there are certain parts of this song I`m not sure are right such as the chorus.
tabbed by Achilles (blue_sincere@hotmail.com)